ISO-10303-21;
HEADER;
/* Generated by software containing ST-Developer
 * from STEP Tools, Inc. (www.steptools.com) 
 */

FILE_DESCRIPTION(
/* description */ (''),
/* implementation_level */ '2;1');

FILE_NAME(
/* name */ 
'C:\\Users\\O.Boryczka\\Desktop\\Korrigierte Zeichnungen\\Montageansch
luss V2A\\40930.ipt.step',
/* time_stamp */ '2022-07-18T12:55:51+02:00',
/* author */ ('Abt. Technik'),
/* organization */ (''),
/* preprocessor_version */ 'ST-DEVELOPER v18.1',
/* originating_system */ 'Autodesk Inventor 2022',
/* authorisation */ '');

FILE_SCHEMA (('AUTOMOTIVE_DESIGN { 1 0 10303 214 3 1 1 }'));
ENDSEC;

DATA;
#10=MECHANICAL_DESIGN_GEOMETRIC_PRESENTATION_REPRESENTATION('',(#13),#558);
#11=SHAPE_REPRESENTATION_RELATIONSHIP('SRR','None',#565,#12);
#12=ADVANCED_BREP_SHAPE_REPRESENTATION('',(#14),#557);
#13=STYLED_ITEM('',(#574),#14);
#14=MANIFOLD_SOLID_BREP('Volumenk\X\F6rper1',#321);
#15=FACE_BOUND('',#52,.T.);
#16=FACE_BOUND('',#54,.T.);
#17=FACE_BOUND('',#61,.T.);
#18=FACE_BOUND('',#66,.T.);
#19=PLANE('',#350);
#20=PLANE('',#351);
#21=PLANE('',#352);
#22=PLANE('',#353);
#23=PLANE('',#354);
#24=PLANE('',#355);
#25=PLANE('',#356);
#26=PLANE('',#357);
#27=PLANE('',#362);
#28=PLANE('',#363);
#29=PLANE('',#366);
#30=PLANE('',#371);
#31=FACE_OUTER_BOUND('',#49,.T.);
#32=FACE_OUTER_BOUND('',#50,.T.);
#33=FACE_OUTER_BOUND('',#51,.T.);
#34=FACE_OUTER_BOUND('',#53,.T.);
#35=FACE_OUTER_BOUND('',#55,.T.);
#36=FACE_OUTER_BOUND('',#56,.T.);
#37=FACE_OUTER_BOUND('',#57,.T.);
#38=FACE_OUTER_BOUND('',#58,.T.);
#39=FACE_OUTER_BOUND('',#59,.T.);
#40=FACE_OUTER_BOUND('',#60,.T.);
#41=FACE_OUTER_BOUND('',#62,.T.);
#42=FACE_OUTER_BOUND('',#63,.T.);
#43=FACE_OUTER_BOUND('',#64,.T.);
#44=FACE_OUTER_BOUND('',#65,.T.);
#45=FACE_OUTER_BOUND('',#67,.T.);
#46=FACE_OUTER_BOUND('',#68,.T.);
#47=FACE_OUTER_BOUND('',#69,.T.);
#48=FACE_OUTER_BOUND('',#70,.T.);
#49=EDGE_LOOP('',(#213,#214,#215,#216));
#50=EDGE_LOOP('',(#217,#218,#219,#220));
#51=EDGE_LOOP('',(#221));
#52=EDGE_LOOP('',(#222));
#53=EDGE_LOOP('',(#223,#224,#225,#226));
#54=EDGE_LOOP('',(#227));
#55=EDGE_LOOP('',(#228,#229,#230,#231));
#56=EDGE_LOOP('',(#232,#233,#234,#235));
#57=EDGE_LOOP('',(#236,#237,#238,#239));
#58=EDGE_LOOP('',(#240,#241,#242,#243));
#59=EDGE_LOOP('',(#244,#245,#246,#247));
#60=EDGE_LOOP('',(#248,#249,#250,#251,#252,#253,#254,#255));
#61=EDGE_LOOP('',(#256,#257,#258,#259));
#62=EDGE_LOOP('',(#260,#261,#262,#263));
#63=EDGE_LOOP('',(#264,#265,#266,#267));
#64=EDGE_LOOP('',(#268,#269,#270,#271));
#65=EDGE_LOOP('',(#272,#273,#274,#275,#276,#277,#278,#279));
#66=EDGE_LOOP('',(#280));
#67=EDGE_LOOP('',(#281,#282,#283,#284));
#68=EDGE_LOOP('',(#285,#286,#287,#288));
#69=EDGE_LOOP('',(#289,#290,#291,#292));
#70=EDGE_LOOP('',(#293,#294,#295,#296));
#71=LINE('',#471,#101);
#72=LINE('',#477,#102);
#73=LINE('',#483,#103);
#74=LINE('',#485,#104);
#75=LINE('',#487,#105);
#76=LINE('',#488,#106);
#77=LINE('',#492,#107);
#78=LINE('',#493,#108);
#79=LINE('',#494,#109);
#80=LINE('',#497,#110);
#81=LINE('',#498,#111);
#82=LINE('',#501,#112);
#83=LINE('',#502,#113);
#84=LINE('',#504,#114);
#85=LINE('',#508,#115);
#86=LINE('',#510,#116);
#87=LINE('',#512,#117);
#88=LINE('',#513,#118);
#89=LINE('',#518,#119);
#90=LINE('',#522,#120);
#91=LINE('',#526,#121);
#92=LINE('',#530,#122);
#93=LINE('',#532,#123);
#94=LINE('',#533,#124);
#95=LINE('',#536,#125);
#96=LINE('',#538,#126);
#97=LINE('',#539,#127);
#98=LINE('',#547,#128);
#99=LINE('',#550,#129);
#100=LINE('',#552,#130);
#101=VECTOR('',#380,4.);
#102=VECTOR('',#387,10.);
#103=VECTOR('',#394,10.);
#104=VECTOR('',#395,10.);
#105=VECTOR('',#396,10.);
#106=VECTOR('',#397,10.);
#107=VECTOR('',#400,10.);
#108=VECTOR('',#401,10.);
#109=VECTOR('',#402,10.);
#110=VECTOR('',#405,10.);
#111=VECTOR('',#406,10.);
#112=VECTOR('',#409,10.);
#113=VECTOR('',#410,10.);
#114=VECTOR('',#413,10.);
#115=VECTOR('',#416,10.);
#116=VECTOR('',#417,10.);
#117=VECTOR('',#418,10.);
#118=VECTOR('',#419,10.);
#119=VECTOR('',#424,10.);
#120=VECTOR('',#427,10.);
#121=VECTOR('',#430,10.);
#122=VECTOR('',#435,10.);
#123=VECTOR('',#436,10.);
#124=VECTOR('',#437,10.);
#125=VECTOR('',#440,10.);
#126=VECTOR('',#441,10.);
#127=VECTOR('',#442,10.);
#128=VECTOR('',#453,10.);
#129=VECTOR('',#458,10.);
#130=VECTOR('',#461,10.);
#131=CIRCLE('',#345,4.);
#132=CIRCLE('',#346,4.);
#133=CIRCLE('',#348,10.);
#134=CIRCLE('',#349,10.);
#135=CIRCLE('',#358,2.);
#136=CIRCLE('',#359,2.);
#137=CIRCLE('',#360,2.);
#138=CIRCLE('',#361,2.);
#139=CIRCLE('',#365,2.);
#140=CIRCLE('',#367,2.);
#141=CIRCLE('',#368,2.);
#142=CIRCLE('',#369,2.);
#143=VERTEX_POINT('',#468);
#144=VERTEX_POINT('',#470);
#145=VERTEX_POINT('',#474);
#146=VERTEX_POINT('',#476);
#147=VERTEX_POINT('',#481);
#148=VERTEX_POINT('',#482);
#149=VERTEX_POINT('',#484);
#150=VERTEX_POINT('',#486);
#151=VERTEX_POINT('',#490);
#152=VERTEX_POINT('',#491);
#153=VERTEX_POINT('',#496);
#154=VERTEX_POINT('',#500);
#155=VERTEX_POINT('',#506);
#156=VERTEX_POINT('',#507);
#157=VERTEX_POINT('',#509);
#158=VERTEX_POINT('',#511);
#159=VERTEX_POINT('',#515);
#160=VERTEX_POINT('',#517);
#161=VERTEX_POINT('',#519);
#162=VERTEX_POINT('',#521);
#163=VERTEX_POINT('',#523);
#164=VERTEX_POINT('',#525);
#165=VERTEX_POINT('',#529);
#166=VERTEX_POINT('',#531);
#167=VERTEX_POINT('',#535);
#168=VERTEX_POINT('',#537);
#169=VERTEX_POINT('',#544);
#170=VERTEX_POINT('',#546);
#171=EDGE_CURVE('',#143,#143,#131,.T.);
#172=EDGE_CURVE('',#143,#144,#71,.T.);
#173=EDGE_CURVE('',#144,#144,#132,.T.);
#174=EDGE_CURVE('',#145,#145,#133,.T.);
#175=EDGE_CURVE('',#145,#146,#72,.T.);
#176=EDGE_CURVE('',#146,#146,#134,.T.);
#177=EDGE_CURVE('',#147,#148,#73,.F.);
#178=EDGE_CURVE('',#148,#149,#74,.F.);
#179=EDGE_CURVE('',#149,#150,#75,.F.);
#180=EDGE_CURVE('',#150,#147,#76,.T.);
#181=EDGE_CURVE('',#151,#152,#77,.T.);
#182=EDGE_CURVE('',#148,#151,#78,.F.);
#183=EDGE_CURVE('',#147,#152,#79,.F.);
#184=EDGE_CURVE('',#153,#151,#80,.T.);
#185=EDGE_CURVE('',#149,#153,#81,.T.);
#186=EDGE_CURVE('',#152,#154,#82,.T.);
#187=EDGE_CURVE('',#150,#154,#83,.T.);
#188=EDGE_CURVE('',#154,#153,#84,.T.);
#189=EDGE_CURVE('',#155,#156,#85,.T.);
#190=EDGE_CURVE('',#157,#155,#86,.T.);
#191=EDGE_CURVE('',#158,#157,#87,.T.);
#192=EDGE_CURVE('',#158,#156,#88,.T.);
#193=EDGE_CURVE('',#159,#155,#135,.T.);
#194=EDGE_CURVE('',#159,#160,#89,.T.);
#195=EDGE_CURVE('',#161,#160,#136,.T.);
#196=EDGE_CURVE('',#161,#162,#90,.T.);
#197=EDGE_CURVE('',#163,#162,#137,.T.);
#198=EDGE_CURVE('',#163,#164,#91,.T.);
#199=EDGE_CURVE('',#157,#164,#138,.T.);
#200=EDGE_CURVE('',#164,#165,#92,.T.);
#201=EDGE_CURVE('',#166,#163,#93,.T.);
#202=EDGE_CURVE('',#166,#165,#94,.T.);
#203=EDGE_CURVE('',#167,#159,#95,.T.);
#204=EDGE_CURVE('',#167,#168,#96,.T.);
#205=EDGE_CURVE('',#160,#168,#97,.T.);
#206=EDGE_CURVE('',#156,#167,#139,.T.);
#207=EDGE_CURVE('',#165,#158,#140,.T.);
#208=EDGE_CURVE('',#169,#166,#141,.T.);
#209=EDGE_CURVE('',#170,#169,#98,.T.);
#210=EDGE_CURVE('',#168,#170,#142,.T.);
#211=EDGE_CURVE('',#170,#161,#99,.T.);
#212=EDGE_CURVE('',#162,#169,#100,.T.);
#213=ORIENTED_EDGE('',*,*,#171,.F.);
#214=ORIENTED_EDGE('',*,*,#172,.T.);
#215=ORIENTED_EDGE('',*,*,#173,.F.);
#216=ORIENTED_EDGE('',*,*,#172,.F.);
#217=ORIENTED_EDGE('',*,*,#174,.F.);
#218=ORIENTED_EDGE('',*,*,#175,.T.);
#219=ORIENTED_EDGE('',*,*,#176,.F.);
#220=ORIENTED_EDGE('',*,*,#175,.F.);
#221=ORIENTED_EDGE('',*,*,#174,.T.);
#222=ORIENTED_EDGE('',*,*,#171,.T.);
#223=ORIENTED_EDGE('',*,*,#177,.T.);
#224=ORIENTED_EDGE('',*,*,#178,.T.);
#225=ORIENTED_EDGE('',*,*,#179,.T.);
#226=ORIENTED_EDGE('',*,*,#180,.T.);
#227=ORIENTED_EDGE('',*,*,#176,.T.);
#228=ORIENTED_EDGE('',*,*,#181,.F.);
#229=ORIENTED_EDGE('',*,*,#182,.F.);
#230=ORIENTED_EDGE('',*,*,#177,.F.);
#231=ORIENTED_EDGE('',*,*,#183,.T.);
#232=ORIENTED_EDGE('',*,*,#184,.F.);
#233=ORIENTED_EDGE('',*,*,#185,.F.);
#234=ORIENTED_EDGE('',*,*,#178,.F.);
#235=ORIENTED_EDGE('',*,*,#182,.T.);
#236=ORIENTED_EDGE('',*,*,#186,.F.);
#237=ORIENTED_EDGE('',*,*,#183,.F.);
#238=ORIENTED_EDGE('',*,*,#180,.F.);
#239=ORIENTED_EDGE('',*,*,#187,.T.);
#240=ORIENTED_EDGE('',*,*,#188,.F.);
#241=ORIENTED_EDGE('',*,*,#187,.F.);
#242=ORIENTED_EDGE('',*,*,#179,.F.);
#243=ORIENTED_EDGE('',*,*,#185,.T.);
#244=ORIENTED_EDGE('',*,*,#189,.F.);
#245=ORIENTED_EDGE('',*,*,#190,.F.);
#246=ORIENTED_EDGE('',*,*,#191,.F.);
#247=ORIENTED_EDGE('',*,*,#192,.T.);
#248=ORIENTED_EDGE('',*,*,#193,.F.);
#249=ORIENTED_EDGE('',*,*,#194,.T.);
#250=ORIENTED_EDGE('',*,*,#195,.F.);
#251=ORIENTED_EDGE('',*,*,#196,.T.);
#252=ORIENTED_EDGE('',*,*,#197,.F.);
#253=ORIENTED_EDGE('',*,*,#198,.T.);
#254=ORIENTED_EDGE('',*,*,#199,.F.);
#255=ORIENTED_EDGE('',*,*,#190,.T.);
#256=ORIENTED_EDGE('',*,*,#181,.T.);
#257=ORIENTED_EDGE('',*,*,#186,.T.);
#258=ORIENTED_EDGE('',*,*,#188,.T.);
#259=ORIENTED_EDGE('',*,*,#184,.T.);
#260=ORIENTED_EDGE('',*,*,#200,.F.);
#261=ORIENTED_EDGE('',*,*,#198,.F.);
#262=ORIENTED_EDGE('',*,*,#201,.F.);
#263=ORIENTED_EDGE('',*,*,#202,.T.);
#264=ORIENTED_EDGE('',*,*,#203,.F.);
#265=ORIENTED_EDGE('',*,*,#204,.T.);
#266=ORIENTED_EDGE('',*,*,#205,.F.);
#267=ORIENTED_EDGE('',*,*,#194,.F.);
#268=ORIENTED_EDGE('',*,*,#189,.T.);
#269=ORIENTED_EDGE('',*,*,#206,.T.);
#270=ORIENTED_EDGE('',*,*,#203,.T.);
#271=ORIENTED_EDGE('',*,*,#193,.T.);
#272=ORIENTED_EDGE('',*,*,#206,.F.);
#273=ORIENTED_EDGE('',*,*,#192,.F.);
#274=ORIENTED_EDGE('',*,*,#207,.F.);
#275=ORIENTED_EDGE('',*,*,#202,.F.);
#276=ORIENTED_EDGE('',*,*,#208,.F.);
#277=ORIENTED_EDGE('',*,*,#209,.F.);
#278=ORIENTED_EDGE('',*,*,#210,.F.);
#279=ORIENTED_EDGE('',*,*,#204,.F.);
#280=ORIENTED_EDGE('',*,*,#173,.T.);
#281=ORIENTED_EDGE('',*,*,#205,.T.);
#282=ORIENTED_EDGE('',*,*,#210,.T.);
#283=ORIENTED_EDGE('',*,*,#211,.T.);
#284=ORIENTED_EDGE('',*,*,#195,.T.);
#285=ORIENTED_EDGE('',*,*,#212,.F.);
#286=ORIENTED_EDGE('',*,*,#196,.F.);
#287=ORIENTED_EDGE('',*,*,#211,.F.);
#288=ORIENTED_EDGE('',*,*,#209,.T.);
#289=ORIENTED_EDGE('',*,*,#200,.T.);
#290=ORIENTED_EDGE('',*,*,#207,.T.);
#291=ORIENTED_EDGE('',*,*,#191,.T.);
#292=ORIENTED_EDGE('',*,*,#199,.T.);
#293=ORIENTED_EDGE('',*,*,#212,.T.);
#294=ORIENTED_EDGE('',*,*,#208,.T.);
#295=ORIENTED_EDGE('',*,*,#201,.T.);
#296=ORIENTED_EDGE('',*,*,#197,.T.);
#297=CYLINDRICAL_SURFACE('',#344,4.);
#298=CYLINDRICAL_SURFACE('',#347,10.);
#299=CYLINDRICAL_SURFACE('',#364,2.);
#300=CYLINDRICAL_SURFACE('',#370,2.);
#301=CYLINDRICAL_SURFACE('',#372,2.);
#302=CYLINDRICAL_SURFACE('',#373,2.);
#303=ADVANCED_FACE('',(#31),#297,.F.);
#304=ADVANCED_FACE('',(#32),#298,.T.);
#305=ADVANCED_FACE('',(#33,#15),#19,.F.);
#306=ADVANCED_FACE('',(#34,#16),#20,.T.);
#307=ADVANCED_FACE('',(#35),#21,.F.);
#308=ADVANCED_FACE('',(#36),#22,.F.);
#309=ADVANCED_FACE('',(#37),#23,.F.);
#310=ADVANCED_FACE('',(#38),#24,.F.);
#311=ADVANCED_FACE('',(#39),#25,.T.);
#312=ADVANCED_FACE('',(#40,#17),#26,.T.);
#313=ADVANCED_FACE('',(#41),#27,.T.);
#314=ADVANCED_FACE('',(#42),#28,.T.);
#315=ADVANCED_FACE('',(#43),#299,.T.);
#316=ADVANCED_FACE('',(#44,#18),#29,.F.);
#317=ADVANCED_FACE('',(#45),#300,.T.);
#318=ADVANCED_FACE('',(#46),#30,.T.);
#319=ADVANCED_FACE('',(#47),#301,.T.);
#320=ADVANCED_FACE('',(#48),#302,.T.);
#321=CLOSED_SHELL('',(#303,#304,#305,#306,#307,#308,#309,#310,#311,#312,
#313,#314,#315,#316,#317,#318,#319,#320));
#322=DERIVED_UNIT_ELEMENT(#325,1.);
#323=DERIVED_UNIT_ELEMENT(#560,-3.);
#324=DIMENSIONAL_EXPONENTS(1.,0.,0.,0.,0.,0.,0.);
#325=(
CONVERSION_BASED_UNIT('gram',#327)
MASS_UNIT()
NAMED_UNIT(#324)
);
#326=(
MASS_UNIT()
NAMED_UNIT(*)
SI_UNIT(.KILO.,.GRAM.)
);
#327=MASS_MEASURE_WITH_UNIT(MASS_MEASURE(0.001),#326);
#328=DERIVED_UNIT((#322,#323));
#329=MEASURE_REPRESENTATION_ITEM('density measure',
POSITIVE_RATIO_MEASURE(8.),#328);
#330=PROPERTY_DEFINITION_REPRESENTATION(#335,#332);
#331=PROPERTY_DEFINITION_REPRESENTATION(#336,#333);
#332=REPRESENTATION('material name',(#334),#557);
#333=REPRESENTATION('density',(#329),#557);
#334=DESCRIPTIVE_REPRESENTATION_ITEM('Edelstahl AISI 304',
'Edelstahl AISI 304');
#335=PROPERTY_DEFINITION('material property','material name',#567);
#336=PROPERTY_DEFINITION('material property','density of part',#567);
#337=DATE_TIME_ROLE('creation_date');
#338=APPLIED_DATE_AND_TIME_ASSIGNMENT(#339,#337,(#567));
#339=DATE_AND_TIME(#340,#341);
#340=CALENDAR_DATE(2021,18,6);
#341=LOCAL_TIME(0,0,0.,#342);
#342=COORDINATED_UNIVERSAL_TIME_OFFSET(0,0,.BEHIND.);
#343=AXIS2_PLACEMENT_3D('placement',#466,#374,#375);
#344=AXIS2_PLACEMENT_3D('',#467,#376,#377);
#345=AXIS2_PLACEMENT_3D('',#469,#378,#379);
#346=AXIS2_PLACEMENT_3D('',#472,#381,#382);
#347=AXIS2_PLACEMENT_3D('',#473,#383,#384);
#348=AXIS2_PLACEMENT_3D('',#475,#385,#386);
#349=AXIS2_PLACEMENT_3D('',#478,#388,#389);
#350=AXIS2_PLACEMENT_3D('',#479,#390,#391);
#351=AXIS2_PLACEMENT_3D('',#480,#392,#393);
#352=AXIS2_PLACEMENT_3D('',#489,#398,#399);
#353=AXIS2_PLACEMENT_3D('',#495,#403,#404);
#354=AXIS2_PLACEMENT_3D('',#499,#407,#408);
#355=AXIS2_PLACEMENT_3D('',#503,#411,#412);
#356=AXIS2_PLACEMENT_3D('',#505,#414,#415);
#357=AXIS2_PLACEMENT_3D('',#514,#420,#421);
#358=AXIS2_PLACEMENT_3D('',#516,#422,#423);
#359=AXIS2_PLACEMENT_3D('',#520,#425,#426);
#360=AXIS2_PLACEMENT_3D('',#524,#428,#429);
#361=AXIS2_PLACEMENT_3D('',#527,#431,#432);
#362=AXIS2_PLACEMENT_3D('',#528,#433,#434);
#363=AXIS2_PLACEMENT_3D('',#534,#438,#439);
#364=AXIS2_PLACEMENT_3D('',#540,#443,#444);
#365=AXIS2_PLACEMENT_3D('',#541,#445,#446);
#366=AXIS2_PLACEMENT_3D('',#542,#447,#448);
#367=AXIS2_PLACEMENT_3D('',#543,#449,#450);
#368=AXIS2_PLACEMENT_3D('',#545,#451,#452);
#369=AXIS2_PLACEMENT_3D('',#548,#454,#455);
#370=AXIS2_PLACEMENT_3D('',#549,#456,#457);
#371=AXIS2_PLACEMENT_3D('',#551,#459,#460);
#372=AXIS2_PLACEMENT_3D('',#553,#462,#463);
#373=AXIS2_PLACEMENT_3D('',#554,#464,#465);
#374=DIRECTION('axis',(0.,0.,1.));
#375=DIRECTION('refdir',(1.,0.,0.));
#376=DIRECTION('center_axis',(0.,1.,0.));
#377=DIRECTION('ref_axis',(-1.,0.,0.));
#378=DIRECTION('center_axis',(0.,-1.,0.));
#379=DIRECTION('ref_axis',(-1.,0.,0.));
#380=DIRECTION('',(0.,-1.,0.));
#381=DIRECTION('center_axis',(0.,1.,0.));
#382=DIRECTION('ref_axis',(1.,0.,0.));
#383=DIRECTION('center_axis',(0.,1.,0.));
#384=DIRECTION('ref_axis',(1.,0.,0.));
#385=DIRECTION('center_axis',(0.,1.,0.));
#386=DIRECTION('ref_axis',(1.,0.,0.));
#387=DIRECTION('',(0.,-1.,0.));
#388=DIRECTION('center_axis',(0.,-1.,0.));
#389=DIRECTION('ref_axis',(1.,0.,0.));
#390=DIRECTION('center_axis',(0.,-1.,0.));
#391=DIRECTION('ref_axis',(0.,0.,-1.));
#392=DIRECTION('center_axis',(0.,1.,0.));
#393=DIRECTION('ref_axis',(0.,0.,1.));
#394=DIRECTION('',(-1.,0.,0.));
#395=DIRECTION('',(0.,0.,1.));
#396=DIRECTION('',(1.,0.,0.));
#397=DIRECTION('',(0.,0.,1.));
#398=DIRECTION('center_axis',(0.,0.,1.));
#399=DIRECTION('ref_axis',(1.,0.,0.));
#400=DIRECTION('',(-1.,0.,0.));
#401=DIRECTION('',(0.,-1.,0.));
#402=DIRECTION('',(0.,-1.,0.));
#403=DIRECTION('center_axis',(1.,0.,0.));
#404=DIRECTION('ref_axis',(0.,0.,-1.));
#405=DIRECTION('',(0.,0.,1.));
#406=DIRECTION('',(0.,1.,0.));
#407=DIRECTION('center_axis',(-1.,0.,0.));
#408=DIRECTION('ref_axis',(0.,0.,1.));
#409=DIRECTION('',(0.,0.,-1.));
#410=DIRECTION('',(0.,1.,0.));
#411=DIRECTION('center_axis',(0.,0.,-1.));
#412=DIRECTION('ref_axis',(-1.,0.,0.));
#413=DIRECTION('',(1.,0.,0.));
#414=DIRECTION('center_axis',(1.,0.,0.));
#415=DIRECTION('ref_axis',(0.,0.,-1.));
#416=DIRECTION('',(0.,-1.,0.));
#417=DIRECTION('',(0.,0.,-1.));
#418=DIRECTION('',(0.,1.,0.));
#419=DIRECTION('',(0.,0.,-1.));
#420=DIRECTION('center_axis',(0.,1.,0.));
#421=DIRECTION('ref_axis',(0.,0.,1.));
#422=DIRECTION('center_axis',(0.,-1.,0.));
#423=DIRECTION('ref_axis',(0.707106781186548,0.,-0.707106781186548));
#424=DIRECTION('',(-1.,0.,0.));
#425=DIRECTION('center_axis',(0.,-1.,0.));
#426=DIRECTION('ref_axis',(-0.707106781186548,0.,-0.707106781186548));
#427=DIRECTION('',(0.,0.,1.));
#428=DIRECTION('center_axis',(0.,-1.,0.));
#429=DIRECTION('ref_axis',(-0.707106781186548,0.,0.707106781186548));
#430=DIRECTION('',(1.,0.,0.));
#431=DIRECTION('center_axis',(0.,-1.,0.));
#432=DIRECTION('ref_axis',(0.707106781186548,0.,0.707106781186548));
#433=DIRECTION('center_axis',(0.,0.,1.));
#434=DIRECTION('ref_axis',(1.,0.,0.));
#435=DIRECTION('',(0.,-1.,0.));
#436=DIRECTION('',(0.,1.,0.));
#437=DIRECTION('',(1.,0.,0.));
#438=DIRECTION('center_axis',(0.,0.,-1.));
#439=DIRECTION('ref_axis',(-1.,0.,0.));
#440=DIRECTION('',(0.,1.,0.));
#441=DIRECTION('',(-1.,0.,0.));
#442=DIRECTION('',(0.,-1.,0.));
#443=DIRECTION('center_axis',(0.,1.,0.));
#444=DIRECTION('ref_axis',(0.707106781186548,0.,-0.707106781186548));
#445=DIRECTION('center_axis',(0.,1.,0.));
#446=DIRECTION('ref_axis',(0.707106781186548,0.,-0.707106781186548));
#447=DIRECTION('center_axis',(0.,1.,0.));
#448=DIRECTION('ref_axis',(0.,0.,1.));
#449=DIRECTION('center_axis',(0.,1.,0.));
#450=DIRECTION('ref_axis',(0.707106781186548,0.,0.707106781186548));
#451=DIRECTION('center_axis',(0.,1.,0.));
#452=DIRECTION('ref_axis',(-0.707106781186548,0.,0.707106781186548));
#453=DIRECTION('',(0.,0.,1.));
#454=DIRECTION('center_axis',(0.,1.,0.));
#455=DIRECTION('ref_axis',(-0.707106781186548,0.,-0.707106781186548));
#456=DIRECTION('center_axis',(0.,1.,0.));
#457=DIRECTION('ref_axis',(-0.707106781186548,0.,-0.707106781186548));
#458=DIRECTION('',(0.,1.,0.));
#459=DIRECTION('center_axis',(-1.,0.,0.));
#460=DIRECTION('ref_axis',(0.,0.,1.));
#461=DIRECTION('',(0.,-1.,0.));
#462=DIRECTION('center_axis',(0.,1.,0.));
#463=DIRECTION('ref_axis',(0.707106781186548,0.,0.707106781186548));
#464=DIRECTION('center_axis',(0.,1.,0.));
#465=DIRECTION('ref_axis',(-0.707106781186548,0.,0.707106781186548));
#466=CARTESIAN_POINT('',(0.,0.,0.));
#467=CARTESIAN_POINT('Origin',(0.,0.,0.));
#468=CARTESIAN_POINT('',(4.,17.5,4.89858719658941E-16));
#469=CARTESIAN_POINT('Origin',(0.,17.5,0.));
#470=CARTESIAN_POINT('',(4.,0.,0.));
#471=CARTESIAN_POINT('',(4.,0.,-4.89858719658941E-16));
#472=CARTESIAN_POINT('Origin',(0.,0.,0.));
#473=CARTESIAN_POINT('Origin',(0.,0.,0.));
#474=CARTESIAN_POINT('',(-10.,17.5,1.22464679914735E-15));
#475=CARTESIAN_POINT('Origin',(0.,17.5,0.));
#476=CARTESIAN_POINT('',(-10.,3.,-1.22464679914735E-15));
#477=CARTESIAN_POINT('',(-10.,0.,1.22464679914735E-15));
#478=CARTESIAN_POINT('Origin',(0.,3.,0.));
#479=CARTESIAN_POINT('Origin',(0.,17.5,0.));
#480=CARTESIAN_POINT('Origin',(0.,3.,0.));
#481=CARTESIAN_POINT('',(-15.,3.,15.));
#482=CARTESIAN_POINT('',(15.,3.,15.));
#483=CARTESIAN_POINT('',(-9.,3.,15.));
#484=CARTESIAN_POINT('',(15.,3.,-15.));
#485=CARTESIAN_POINT('',(15.,3.,9.));
#486=CARTESIAN_POINT('',(-15.,3.,-15.));
#487=CARTESIAN_POINT('',(9.,3.,-15.));
#488=CARTESIAN_POINT('',(-15.,3.,-9.));
#489=CARTESIAN_POINT('Origin',(-18.,0.,15.));
#490=CARTESIAN_POINT('',(15.,40.,15.));
#491=CARTESIAN_POINT('',(-15.,40.,15.));
#492=CARTESIAN_POINT('',(-9.,40.,15.));
#493=CARTESIAN_POINT('',(15.,0.,15.));
#494=CARTESIAN_POINT('',(-15.,0.,15.));
#495=CARTESIAN_POINT('Origin',(15.,0.,18.));
#496=CARTESIAN_POINT('',(15.,40.,-15.));
#497=CARTESIAN_POINT('',(15.,40.,9.));
#498=CARTESIAN_POINT('',(15.,0.,-15.));
#499=CARTESIAN_POINT('Origin',(-15.,0.,-18.));
#500=CARTESIAN_POINT('',(-15.,40.,-15.));
#501=CARTESIAN_POINT('',(-15.,40.,-9.));
#502=CARTESIAN_POINT('',(-15.,0.,-15.));
#503=CARTESIAN_POINT('Origin',(18.,0.,-15.));
#504=CARTESIAN_POINT('',(9.,40.,-15.));
#505=CARTESIAN_POINT('Origin',(18.,0.,18.));
#506=CARTESIAN_POINT('',(18.,40.,-16.));
#507=CARTESIAN_POINT('',(18.,0.,-16.));
#508=CARTESIAN_POINT('',(18.,0.,-16.));
#509=CARTESIAN_POINT('',(18.,40.,16.));
#510=CARTESIAN_POINT('',(18.,40.,18.));
#511=CARTESIAN_POINT('',(18.,0.,16.));
#512=CARTESIAN_POINT('',(18.,0.,16.));
#513=CARTESIAN_POINT('',(18.,0.,18.));
#514=CARTESIAN_POINT('Origin',(0.,40.,0.));
#515=CARTESIAN_POINT('',(16.,40.,-18.));
#516=CARTESIAN_POINT('Origin',(16.,40.,-16.));
#517=CARTESIAN_POINT('',(-16.,40.,-18.));
#518=CARTESIAN_POINT('',(18.,40.,-18.));
#519=CARTESIAN_POINT('',(-18.,40.,-16.));
#520=CARTESIAN_POINT('Origin',(-16.,40.,-16.));
#521=CARTESIAN_POINT('',(-18.,40.,16.));
#522=CARTESIAN_POINT('',(-18.,40.,-18.));
#523=CARTESIAN_POINT('',(-16.,40.,18.));
#524=CARTESIAN_POINT('Origin',(-16.,40.,16.));
#525=CARTESIAN_POINT('',(16.,40.,18.));
#526=CARTESIAN_POINT('',(-18.,40.,18.));
#527=CARTESIAN_POINT('Origin',(16.,40.,16.));
#528=CARTESIAN_POINT('Origin',(-18.,0.,18.));
#529=CARTESIAN_POINT('',(16.,0.,18.));
#530=CARTESIAN_POINT('',(16.,0.,18.));
#531=CARTESIAN_POINT('',(-16.,0.,18.));
#532=CARTESIAN_POINT('',(-16.,0.,18.));
#533=CARTESIAN_POINT('',(-18.,0.,18.));
#534=CARTESIAN_POINT('Origin',(18.,0.,-18.));
#535=CARTESIAN_POINT('',(16.,0.,-18.));
#536=CARTESIAN_POINT('',(16.,0.,-18.));
#537=CARTESIAN_POINT('',(-16.,0.,-18.));
#538=CARTESIAN_POINT('',(18.,0.,-18.));
#539=CARTESIAN_POINT('',(-16.,0.,-18.));
#540=CARTESIAN_POINT('Origin',(16.,0.,-16.));
#541=CARTESIAN_POINT('Origin',(16.,0.,-16.));
#542=CARTESIAN_POINT('Origin',(0.,0.,0.));
#543=CARTESIAN_POINT('Origin',(16.,0.,16.));
#544=CARTESIAN_POINT('',(-18.,0.,16.));
#545=CARTESIAN_POINT('Origin',(-16.,0.,16.));
#546=CARTESIAN_POINT('',(-18.,0.,-16.));
#547=CARTESIAN_POINT('',(-18.,0.,-18.));
#548=CARTESIAN_POINT('Origin',(-16.,0.,-16.));
#549=CARTESIAN_POINT('Origin',(-16.,0.,-16.));
#550=CARTESIAN_POINT('',(-18.,0.,-16.));
#551=CARTESIAN_POINT('Origin',(-18.,0.,-18.));
#552=CARTESIAN_POINT('',(-18.,0.,16.));
#553=CARTESIAN_POINT('Origin',(16.,0.,16.));
#554=CARTESIAN_POINT('Origin',(-16.,0.,16.));
#555=UNCERTAINTY_MEASURE_WITH_UNIT(LENGTH_MEASURE(0.01),#559,
'DISTANCE_ACCURACY_VALUE',
'Maximum model space distance between geometric entities at asserted c
onnectivities');
#556=UNCERTAINTY_MEASURE_WITH_UNIT(LENGTH_MEASURE(0.01),#559,
'DISTANCE_ACCURACY_VALUE',
'Maximum model space distance between geometric entities at asserted c
onnectivities');
#557=(
GEOMETRIC_REPRESENTATION_CONTEXT(3)
GLOBAL_UNCERTAINTY_ASSIGNED_CONTEXT((#555))
GLOBAL_UNIT_ASSIGNED_CONTEXT((#559,#561,#562))
REPRESENTATION_CONTEXT('','3D')
);
#558=(
GEOMETRIC_REPRESENTATION_CONTEXT(3)
GLOBAL_UNCERTAINTY_ASSIGNED_CONTEXT((#556))
GLOBAL_UNIT_ASSIGNED_CONTEXT((#559,#561,#562))
REPRESENTATION_CONTEXT('','3D')
);
#559=(
LENGTH_UNIT()
NAMED_UNIT(*)
SI_UNIT(.MILLI.,.METRE.)
);
#560=(
LENGTH_UNIT()
NAMED_UNIT(*)
SI_UNIT(.CENTI.,.METRE.)
);
#561=(
NAMED_UNIT(*)
PLANE_ANGLE_UNIT()
SI_UNIT($,.RADIAN.)
);
#562=(
NAMED_UNIT(*)
SI_UNIT($,.STERADIAN.)
SOLID_ANGLE_UNIT()
);
#563=SHAPE_DEFINITION_REPRESENTATION(#564,#565);
#564=PRODUCT_DEFINITION_SHAPE('',$,#567);
#565=SHAPE_REPRESENTATION('',(#343),#557);
#566=PRODUCT_DEFINITION_CONTEXT('part definition',#571,'design');
#567=PRODUCT_DEFINITION('40930','40930',#568,#566);
#568=PRODUCT_DEFINITION_FORMATION('',$,#573);
#569=PRODUCT_RELATED_PRODUCT_CATEGORY('40930','40930',(#573));
#570=APPLICATION_PROTOCOL_DEFINITION('international standard',
'automotive_design',2009,#571);
#571=APPLICATION_CONTEXT(
'Core Data for Automotive Mechanical Design Process');
#572=PRODUCT_CONTEXT('part definition',#571,'mechanical');
#573=PRODUCT('40930','40930',$,(#572));
#574=PRESENTATION_STYLE_ASSIGNMENT((#575));
#575=SURFACE_STYLE_USAGE(.BOTH.,#578);
#576=SURFACE_STYLE_RENDERING_WITH_PROPERTIES($,#582,(#577));
#577=SURFACE_STYLE_TRANSPARENT(0.);
#578=SURFACE_SIDE_STYLE('',(#579,#576));
#579=SURFACE_STYLE_FILL_AREA(#580);
#580=FILL_AREA_STYLE('',(#581));
#581=FILL_AREA_STYLE_COLOUR('',#582);
#582=COLOUR_RGB('',0.956862745098039,0.956862745098039,0.956862745098039);
ENDSEC;
END-ISO-10303-21;
