ISO-10303-21;
HEADER;
/* Generated by software containing ST-Developer
 * from STEP Tools, Inc. (www.steptools.com) 
 */

FILE_DESCRIPTION(
/* description */ (''),
/* implementation_level */ '2;1');

FILE_NAME(
/* name */ 
'C:\\Users\\O.Boryczka\\Desktop\\Korrigierte Zeichnungen\\Ankerplatten
\\Ankerplatten V2A abgerundet\\IPT_Daten\\41008.ipt.step',
/* time_stamp */ '2022-07-18T12:52:52+02:00',
/* author */ ('Nutzer'),
/* organization */ (''),
/* preprocessor_version */ 'ST-DEVELOPER v18.1',
/* originating_system */ 'Autodesk Inventor 2022',
/* authorisation */ '');

FILE_SCHEMA (('AUTOMOTIVE_DESIGN { 1 0 10303 214 3 1 1 }'));
ENDSEC;

DATA;
#10=MECHANICAL_DESIGN_GEOMETRIC_PRESENTATION_REPRESENTATION('',(#13),#476);
#11=SHAPE_REPRESENTATION_RELATIONSHIP('SRR','None',#483,#12);
#12=ADVANCED_BREP_SHAPE_REPRESENTATION('',(#14),#475);
#13=STYLED_ITEM('',(#492),#14);
#14=MANIFOLD_SOLID_BREP('Volumenk\X\F6rper1',#271);
#15=FACE_BOUND('',#54,.T.);
#16=FACE_BOUND('',#55,.T.);
#17=FACE_BOUND('',#57,.T.);
#18=FACE_BOUND('',#58,.T.);
#19=PLANE('',#297);
#20=PLANE('',#301);
#21=PLANE('',#305);
#22=PLANE('',#309);
#23=PLANE('',#310);
#24=PLANE('',#314);
#25=PLANE('',#318);
#26=PLANE('',#319);
#27=FACE_OUTER_BOUND('',#41,.T.);
#28=FACE_OUTER_BOUND('',#42,.T.);
#29=FACE_OUTER_BOUND('',#43,.T.);
#30=FACE_OUTER_BOUND('',#44,.T.);
#31=FACE_OUTER_BOUND('',#45,.T.);
#32=FACE_OUTER_BOUND('',#46,.T.);
#33=FACE_OUTER_BOUND('',#47,.T.);
#34=FACE_OUTER_BOUND('',#48,.T.);
#35=FACE_OUTER_BOUND('',#49,.T.);
#36=FACE_OUTER_BOUND('',#50,.T.);
#37=FACE_OUTER_BOUND('',#51,.T.);
#38=FACE_OUTER_BOUND('',#52,.T.);
#39=FACE_OUTER_BOUND('',#53,.T.);
#40=FACE_OUTER_BOUND('',#56,.T.);
#41=EDGE_LOOP('',(#179,#180,#181,#182));
#42=EDGE_LOOP('',(#183,#184,#185,#186));
#43=EDGE_LOOP('',(#187,#188,#189,#190));
#44=EDGE_LOOP('',(#191,#192,#193,#194));
#45=EDGE_LOOP('',(#195,#196,#197,#198));
#46=EDGE_LOOP('',(#199,#200,#201,#202));
#47=EDGE_LOOP('',(#203,#204,#205,#206));
#48=EDGE_LOOP('',(#207,#208,#209,#210));
#49=EDGE_LOOP('',(#211,#212,#213,#214));
#50=EDGE_LOOP('',(#215,#216,#217,#218));
#51=EDGE_LOOP('',(#219,#220,#221,#222));
#52=EDGE_LOOP('',(#223,#224,#225,#226));
#53=EDGE_LOOP('',(#227,#228,#229,#230));
#54=EDGE_LOOP('',(#231,#232,#233,#234));
#55=EDGE_LOOP('',(#235,#236,#237,#238));
#56=EDGE_LOOP('',(#239,#240,#241,#242));
#57=EDGE_LOOP('',(#243,#244,#245,#246));
#58=EDGE_LOOP('',(#247,#248,#249,#250));
#59=LINE('',#404,#83);
#60=LINE('',#407,#84);
#61=LINE('',#410,#85);
#62=LINE('',#412,#86);
#63=LINE('',#413,#87);
#64=LINE('',#419,#88);
#65=LINE('',#421,#89);
#66=LINE('',#422,#90);
#67=LINE('',#428,#91);
#68=LINE('',#431,#92);
#69=LINE('',#434,#93);
#70=LINE('',#436,#94);
#71=LINE('',#437,#95);
#72=LINE('',#443,#96);
#73=LINE('',#445,#97);
#74=LINE('',#446,#98);
#75=LINE('',#450,#99);
#76=LINE('',#452,#100);
#77=LINE('',#454,#101);
#78=LINE('',#455,#102);
#79=LINE('',#461,#103);
#80=LINE('',#464,#104);
#81=LINE('',#466,#105);
#82=LINE('',#467,#106);
#83=VECTOR('',#326,10.);
#84=VECTOR('',#329,10.);
#85=VECTOR('',#332,10.);
#86=VECTOR('',#333,10.);
#87=VECTOR('',#334,10.);
#88=VECTOR('',#341,10.);
#89=VECTOR('',#344,10.);
#90=VECTOR('',#345,10.);
#91=VECTOR('',#350,10.);
#92=VECTOR('',#353,10.);
#93=VECTOR('',#356,10.);
#94=VECTOR('',#357,10.);
#95=VECTOR('',#358,10.);
#96=VECTOR('',#365,10.);
#97=VECTOR('',#368,10.);
#98=VECTOR('',#369,10.);
#99=VECTOR('',#372,10.);
#100=VECTOR('',#373,10.);
#101=VECTOR('',#374,10.);
#102=VECTOR('',#375,10.);
#103=VECTOR('',#382,10.);
#104=VECTOR('',#385,10.);
#105=VECTOR('',#386,10.);
#106=VECTOR('',#387,10.);
#107=CIRCLE('',#295,6.5);
#108=CIRCLE('',#296,6.5);
#109=CIRCLE('',#299,6.5);
#110=CIRCLE('',#300,6.5);
#111=CIRCLE('',#303,6.5);
#112=CIRCLE('',#304,6.5);
#113=CIRCLE('',#307,6.49999999999999);
#114=CIRCLE('',#308,6.49999999999999);
#115=CIRCLE('',#312,60.);
#116=CIRCLE('',#313,60.);
#117=CIRCLE('',#316,60.);
#118=CIRCLE('',#317,60.);
#119=VERTEX_POINT('',#400);
#120=VERTEX_POINT('',#401);
#121=VERTEX_POINT('',#403);
#122=VERTEX_POINT('',#405);
#123=VERTEX_POINT('',#409);
#124=VERTEX_POINT('',#411);
#125=VERTEX_POINT('',#415);
#126=VERTEX_POINT('',#417);
#127=VERTEX_POINT('',#424);
#128=VERTEX_POINT('',#425);
#129=VERTEX_POINT('',#427);
#130=VERTEX_POINT('',#429);
#131=VERTEX_POINT('',#433);
#132=VERTEX_POINT('',#435);
#133=VERTEX_POINT('',#439);
#134=VERTEX_POINT('',#441);
#135=VERTEX_POINT('',#448);
#136=VERTEX_POINT('',#449);
#137=VERTEX_POINT('',#451);
#138=VERTEX_POINT('',#453);
#139=VERTEX_POINT('',#457);
#140=VERTEX_POINT('',#459);
#141=VERTEX_POINT('',#463);
#142=VERTEX_POINT('',#465);
#143=EDGE_CURVE('',#119,#120,#107,.T.);
#144=EDGE_CURVE('',#120,#121,#59,.T.);
#145=EDGE_CURVE('',#122,#121,#108,.T.);
#146=EDGE_CURVE('',#119,#122,#60,.T.);
#147=EDGE_CURVE('',#123,#119,#61,.T.);
#148=EDGE_CURVE('',#124,#122,#62,.T.);
#149=EDGE_CURVE('',#123,#124,#63,.T.);
#150=EDGE_CURVE('',#125,#123,#109,.T.);
#151=EDGE_CURVE('',#126,#124,#110,.T.);
#152=EDGE_CURVE('',#125,#126,#64,.T.);
#153=EDGE_CURVE('',#120,#125,#65,.T.);
#154=EDGE_CURVE('',#121,#126,#66,.T.);
#155=EDGE_CURVE('',#127,#128,#111,.T.);
#156=EDGE_CURVE('',#128,#129,#67,.T.);
#157=EDGE_CURVE('',#130,#129,#112,.T.);
#158=EDGE_CURVE('',#127,#130,#68,.T.);
#159=EDGE_CURVE('',#131,#127,#69,.T.);
#160=EDGE_CURVE('',#132,#130,#70,.T.);
#161=EDGE_CURVE('',#131,#132,#71,.T.);
#162=EDGE_CURVE('',#133,#131,#113,.T.);
#163=EDGE_CURVE('',#134,#132,#114,.T.);
#164=EDGE_CURVE('',#133,#134,#72,.T.);
#165=EDGE_CURVE('',#128,#133,#73,.T.);
#166=EDGE_CURVE('',#129,#134,#74,.T.);
#167=EDGE_CURVE('',#135,#136,#75,.T.);
#168=EDGE_CURVE('',#136,#137,#76,.T.);
#169=EDGE_CURVE('',#138,#137,#77,.T.);
#170=EDGE_CURVE('',#135,#138,#78,.T.);
#171=EDGE_CURVE('',#139,#135,#115,.T.);
#172=EDGE_CURVE('',#140,#138,#116,.T.);
#173=EDGE_CURVE('',#139,#140,#79,.T.);
#174=EDGE_CURVE('',#141,#139,#80,.T.);
#175=EDGE_CURVE('',#142,#140,#81,.T.);
#176=EDGE_CURVE('',#141,#142,#82,.T.);
#177=EDGE_CURVE('',#136,#141,#117,.T.);
#178=EDGE_CURVE('',#137,#142,#118,.T.);
#179=ORIENTED_EDGE('',*,*,#143,.T.);
#180=ORIENTED_EDGE('',*,*,#144,.T.);
#181=ORIENTED_EDGE('',*,*,#145,.F.);
#182=ORIENTED_EDGE('',*,*,#146,.F.);
#183=ORIENTED_EDGE('',*,*,#147,.T.);
#184=ORIENTED_EDGE('',*,*,#146,.T.);
#185=ORIENTED_EDGE('',*,*,#148,.F.);
#186=ORIENTED_EDGE('',*,*,#149,.F.);
#187=ORIENTED_EDGE('',*,*,#150,.T.);
#188=ORIENTED_EDGE('',*,*,#149,.T.);
#189=ORIENTED_EDGE('',*,*,#151,.F.);
#190=ORIENTED_EDGE('',*,*,#152,.F.);
#191=ORIENTED_EDGE('',*,*,#153,.T.);
#192=ORIENTED_EDGE('',*,*,#152,.T.);
#193=ORIENTED_EDGE('',*,*,#154,.F.);
#194=ORIENTED_EDGE('',*,*,#144,.F.);
#195=ORIENTED_EDGE('',*,*,#155,.T.);
#196=ORIENTED_EDGE('',*,*,#156,.T.);
#197=ORIENTED_EDGE('',*,*,#157,.F.);
#198=ORIENTED_EDGE('',*,*,#158,.F.);
#199=ORIENTED_EDGE('',*,*,#159,.T.);
#200=ORIENTED_EDGE('',*,*,#158,.T.);
#201=ORIENTED_EDGE('',*,*,#160,.F.);
#202=ORIENTED_EDGE('',*,*,#161,.F.);
#203=ORIENTED_EDGE('',*,*,#162,.T.);
#204=ORIENTED_EDGE('',*,*,#161,.T.);
#205=ORIENTED_EDGE('',*,*,#163,.F.);
#206=ORIENTED_EDGE('',*,*,#164,.F.);
#207=ORIENTED_EDGE('',*,*,#165,.T.);
#208=ORIENTED_EDGE('',*,*,#164,.T.);
#209=ORIENTED_EDGE('',*,*,#166,.F.);
#210=ORIENTED_EDGE('',*,*,#156,.F.);
#211=ORIENTED_EDGE('',*,*,#167,.T.);
#212=ORIENTED_EDGE('',*,*,#168,.T.);
#213=ORIENTED_EDGE('',*,*,#169,.F.);
#214=ORIENTED_EDGE('',*,*,#170,.F.);
#215=ORIENTED_EDGE('',*,*,#171,.T.);
#216=ORIENTED_EDGE('',*,*,#170,.T.);
#217=ORIENTED_EDGE('',*,*,#172,.F.);
#218=ORIENTED_EDGE('',*,*,#173,.F.);
#219=ORIENTED_EDGE('',*,*,#174,.T.);
#220=ORIENTED_EDGE('',*,*,#173,.T.);
#221=ORIENTED_EDGE('',*,*,#175,.F.);
#222=ORIENTED_EDGE('',*,*,#176,.F.);
#223=ORIENTED_EDGE('',*,*,#177,.T.);
#224=ORIENTED_EDGE('',*,*,#176,.T.);
#225=ORIENTED_EDGE('',*,*,#178,.F.);
#226=ORIENTED_EDGE('',*,*,#168,.F.);
#227=ORIENTED_EDGE('',*,*,#178,.T.);
#228=ORIENTED_EDGE('',*,*,#175,.T.);
#229=ORIENTED_EDGE('',*,*,#172,.T.);
#230=ORIENTED_EDGE('',*,*,#169,.T.);
#231=ORIENTED_EDGE('',*,*,#166,.T.);
#232=ORIENTED_EDGE('',*,*,#163,.T.);
#233=ORIENTED_EDGE('',*,*,#160,.T.);
#234=ORIENTED_EDGE('',*,*,#157,.T.);
#235=ORIENTED_EDGE('',*,*,#154,.T.);
#236=ORIENTED_EDGE('',*,*,#151,.T.);
#237=ORIENTED_EDGE('',*,*,#148,.T.);
#238=ORIENTED_EDGE('',*,*,#145,.T.);
#239=ORIENTED_EDGE('',*,*,#177,.F.);
#240=ORIENTED_EDGE('',*,*,#167,.F.);
#241=ORIENTED_EDGE('',*,*,#171,.F.);
#242=ORIENTED_EDGE('',*,*,#174,.F.);
#243=ORIENTED_EDGE('',*,*,#165,.F.);
#244=ORIENTED_EDGE('',*,*,#155,.F.);
#245=ORIENTED_EDGE('',*,*,#159,.F.);
#246=ORIENTED_EDGE('',*,*,#162,.F.);
#247=ORIENTED_EDGE('',*,*,#153,.F.);
#248=ORIENTED_EDGE('',*,*,#143,.F.);
#249=ORIENTED_EDGE('',*,*,#147,.F.);
#250=ORIENTED_EDGE('',*,*,#150,.F.);
#251=CYLINDRICAL_SURFACE('',#294,6.5);
#252=CYLINDRICAL_SURFACE('',#298,6.5);
#253=CYLINDRICAL_SURFACE('',#302,6.5);
#254=CYLINDRICAL_SURFACE('',#306,6.49999999999999);
#255=CYLINDRICAL_SURFACE('',#311,60.);
#256=CYLINDRICAL_SURFACE('',#315,60.);
#257=ADVANCED_FACE('',(#27),#251,.F.);
#258=ADVANCED_FACE('',(#28),#19,.T.);
#259=ADVANCED_FACE('',(#29),#252,.F.);
#260=ADVANCED_FACE('',(#30),#20,.T.);
#261=ADVANCED_FACE('',(#31),#253,.F.);
#262=ADVANCED_FACE('',(#32),#21,.T.);
#263=ADVANCED_FACE('',(#33),#254,.F.);
#264=ADVANCED_FACE('',(#34),#22,.T.);
#265=ADVANCED_FACE('',(#35),#23,.T.);
#266=ADVANCED_FACE('',(#36),#255,.T.);
#267=ADVANCED_FACE('',(#37),#24,.T.);
#268=ADVANCED_FACE('',(#38),#256,.T.);
#269=ADVANCED_FACE('',(#39,#15,#16),#25,.T.);
#270=ADVANCED_FACE('',(#40,#17,#18),#26,.F.);
#271=CLOSED_SHELL('',(#257,#258,#259,#260,#261,#262,#263,#264,#265,#266,
#267,#268,#269,#270));
#272=DERIVED_UNIT_ELEMENT(#275,1.);
#273=DERIVED_UNIT_ELEMENT(#478,-3.);
#274=DIMENSIONAL_EXPONENTS(1.,0.,0.,0.,0.,0.,0.);
#275=(
CONVERSION_BASED_UNIT('gram',#277)
MASS_UNIT()
NAMED_UNIT(#274)
);
#276=(
MASS_UNIT()
NAMED_UNIT(*)
SI_UNIT(.KILO.,.GRAM.)
);
#277=MASS_MEASURE_WITH_UNIT(MASS_MEASURE(0.001),#276);
#278=DERIVED_UNIT((#272,#273));
#279=MEASURE_REPRESENTATION_ITEM('density measure',
POSITIVE_RATIO_MEASURE(8.),#278);
#280=PROPERTY_DEFINITION_REPRESENTATION(#285,#282);
#281=PROPERTY_DEFINITION_REPRESENTATION(#286,#283);
#282=REPRESENTATION('material name',(#284),#475);
#283=REPRESENTATION('density',(#279),#475);
#284=DESCRIPTIVE_REPRESENTATION_ITEM('Edelstahl AISI 304',
'Edelstahl AISI 304');
#285=PROPERTY_DEFINITION('material property','material name',#485);
#286=PROPERTY_DEFINITION('material property','density of part',#485);
#287=DATE_TIME_ROLE('creation_date');
#288=APPLIED_DATE_AND_TIME_ASSIGNMENT(#289,#287,(#485));
#289=DATE_AND_TIME(#290,#291);
#290=CALENDAR_DATE(2021,21,4);
#291=LOCAL_TIME(0,0,0.,#292);
#292=COORDINATED_UNIVERSAL_TIME_OFFSET(0,0,.BEHIND.);
#293=AXIS2_PLACEMENT_3D('placement',#398,#320,#321);
#294=AXIS2_PLACEMENT_3D('',#399,#322,#323);
#295=AXIS2_PLACEMENT_3D('',#402,#324,#325);
#296=AXIS2_PLACEMENT_3D('',#406,#327,#328);
#297=AXIS2_PLACEMENT_3D('',#408,#330,#331);
#298=AXIS2_PLACEMENT_3D('',#414,#335,#336);
#299=AXIS2_PLACEMENT_3D('',#416,#337,#338);
#300=AXIS2_PLACEMENT_3D('',#418,#339,#340);
#301=AXIS2_PLACEMENT_3D('',#420,#342,#343);
#302=AXIS2_PLACEMENT_3D('',#423,#346,#347);
#303=AXIS2_PLACEMENT_3D('',#426,#348,#349);
#304=AXIS2_PLACEMENT_3D('',#430,#351,#352);
#305=AXIS2_PLACEMENT_3D('',#432,#354,#355);
#306=AXIS2_PLACEMENT_3D('',#438,#359,#360);
#307=AXIS2_PLACEMENT_3D('',#440,#361,#362);
#308=AXIS2_PLACEMENT_3D('',#442,#363,#364);
#309=AXIS2_PLACEMENT_3D('',#444,#366,#367);
#310=AXIS2_PLACEMENT_3D('',#447,#370,#371);
#311=AXIS2_PLACEMENT_3D('',#456,#376,#377);
#312=AXIS2_PLACEMENT_3D('',#458,#378,#379);
#313=AXIS2_PLACEMENT_3D('',#460,#380,#381);
#314=AXIS2_PLACEMENT_3D('',#462,#383,#384);
#315=AXIS2_PLACEMENT_3D('',#468,#388,#389);
#316=AXIS2_PLACEMENT_3D('',#469,#390,#391);
#317=AXIS2_PLACEMENT_3D('',#470,#392,#393);
#318=AXIS2_PLACEMENT_3D('',#471,#394,#395);
#319=AXIS2_PLACEMENT_3D('',#472,#396,#397);
#320=DIRECTION('axis',(0.,0.,1.));
#321=DIRECTION('refdir',(1.,0.,0.));
#322=DIRECTION('center_axis',(0.,1.,0.));
#323=DIRECTION('ref_axis',(6.83214169000096E-16,0.,1.));
#324=DIRECTION('center_axis',(0.,-1.,0.));
#325=DIRECTION('ref_axis',(6.83214169000096E-16,0.,1.));
#326=DIRECTION('',(0.,1.,0.));
#327=DIRECTION('center_axis',(0.,-1.,0.));
#328=DIRECTION('ref_axis',(6.83214169000096E-16,0.,1.));
#329=DIRECTION('',(0.,1.,0.));
#330=DIRECTION('center_axis',(-7.93016446160826E-16,0.,-1.));
#331=DIRECTION('ref_axis',(-1.,0.,7.93016446160826E-16));
#332=DIRECTION('',(-1.,0.,7.93016446160826E-16));
#333=DIRECTION('',(-1.,0.,7.93016446160826E-16));
#334=DIRECTION('',(0.,1.,0.));
#335=DIRECTION('center_axis',(0.,1.,0.));
#336=DIRECTION('ref_axis',(-1.36642833800019E-15,0.,-1.));
#337=DIRECTION('center_axis',(0.,-1.,0.));
#338=DIRECTION('ref_axis',(-1.36642833800019E-15,0.,-1.));
#339=DIRECTION('center_axis',(0.,-1.,0.));
#340=DIRECTION('ref_axis',(-1.36642833800019E-15,0.,-1.));
#341=DIRECTION('',(0.,1.,0.));
#342=DIRECTION('center_axis',(1.26882631385732E-15,0.,1.));
#343=DIRECTION('ref_axis',(1.,0.,-1.26882631385732E-15));
#344=DIRECTION('',(1.,0.,-1.26882631385732E-15));
#345=DIRECTION('',(1.,0.,-1.26882631385732E-15));
#346=DIRECTION('center_axis',(0.,1.,0.));
#347=DIRECTION('ref_axis',(-2.04964250700029E-15,0.,1.));
#348=DIRECTION('center_axis',(0.,-1.,0.));
#349=DIRECTION('ref_axis',(-2.04964250700029E-15,0.,1.));
#350=DIRECTION('',(0.,1.,0.));
#351=DIRECTION('center_axis',(0.,-1.,0.));
#352=DIRECTION('ref_axis',(-2.04964250700029E-15,0.,1.));
#353=DIRECTION('',(0.,1.,0.));
#354=DIRECTION('center_axis',(2.53765262771464E-15,0.,-1.));
#355=DIRECTION('ref_axis',(-1.,0.,-2.53765262771464E-15));
#356=DIRECTION('',(-1.,0.,-2.53765262771464E-15));
#357=DIRECTION('',(-1.,0.,-2.53765262771464E-15));
#358=DIRECTION('',(0.,1.,0.));
#359=DIRECTION('center_axis',(0.,1.,0.));
#360=DIRECTION('ref_axis',(2.73285667600038E-15,0.,-1.));
#361=DIRECTION('center_axis',(0.,-1.,0.));
#362=DIRECTION('ref_axis',(2.73285667600038E-15,0.,-1.));
#363=DIRECTION('center_axis',(0.,-1.,0.));
#364=DIRECTION('ref_axis',(2.73285667600038E-15,0.,-1.));
#365=DIRECTION('',(0.,1.,0.));
#366=DIRECTION('center_axis',(-2.53765262771464E-15,0.,1.));
#367=DIRECTION('ref_axis',(1.,0.,2.53765262771464E-15));
#368=DIRECTION('',(1.,0.,2.53765262771464E-15));
#369=DIRECTION('',(1.,0.,2.53765262771464E-15));
#370=DIRECTION('center_axis',(-1.,0.,0.));
#371=DIRECTION('ref_axis',(0.,0.,1.));
#372=DIRECTION('',(0.,0.,1.));
#373=DIRECTION('',(0.,1.,0.));
#374=DIRECTION('',(0.,0.,1.));
#375=DIRECTION('',(0.,1.,0.));
#376=DIRECTION('center_axis',(0.,1.,0.));
#377=DIRECTION('ref_axis',(0.5,0.,-0.866025403784439));
#378=DIRECTION('center_axis',(0.,1.,0.));
#379=DIRECTION('ref_axis',(0.5,0.,-0.866025403784439));
#380=DIRECTION('center_axis',(0.,1.,0.));
#381=DIRECTION('ref_axis',(0.5,0.,-0.866025403784439));
#382=DIRECTION('',(0.,1.,0.));
#383=DIRECTION('center_axis',(1.,0.,-3.87026422273689E-16));
#384=DIRECTION('ref_axis',(-3.87026422273689E-16,0.,-1.));
#385=DIRECTION('',(-3.87026422273689E-16,0.,-1.));
#386=DIRECTION('',(-3.87026422273689E-16,0.,-1.));
#387=DIRECTION('',(0.,1.,0.));
#388=DIRECTION('center_axis',(0.,1.,0.));
#389=DIRECTION('ref_axis',(-0.5,0.,0.866025403784438));
#390=DIRECTION('center_axis',(0.,1.,0.));
#391=DIRECTION('ref_axis',(-0.5,0.,0.866025403784438));
#392=DIRECTION('center_axis',(0.,1.,0.));
#393=DIRECTION('ref_axis',(-0.5,0.,0.866025403784438));
#394=DIRECTION('center_axis',(0.,1.,0.));
#395=DIRECTION('ref_axis',(0.,0.,1.));
#396=DIRECTION('center_axis',(0.,1.,0.));
#397=DIRECTION('ref_axis',(0.,0.,1.));
#398=CARTESIAN_POINT('',(0.,0.,0.));
#399=CARTESIAN_POINT('Origin',(-33.5,0.,-11.9615242270663));
#400=CARTESIAN_POINT('',(-33.5,0.,-5.46152422706631));
#401=CARTESIAN_POINT('',(-33.5,0.,-18.4615242270663));
#402=CARTESIAN_POINT('Origin',(-33.5,0.,-11.9615242270663));
#403=CARTESIAN_POINT('',(-33.5,8.,-18.4615242270663));
#404=CARTESIAN_POINT('',(-33.5,0.,-18.4615242270663));
#405=CARTESIAN_POINT('',(-33.5,8.,-5.46152422706631));
#406=CARTESIAN_POINT('Origin',(-33.5,8.,-11.9615242270663));
#407=CARTESIAN_POINT('',(-33.5,0.,-5.46152422706631));
#408=CARTESIAN_POINT('Origin',(-26.5,0.,-5.46152422706632));
#409=CARTESIAN_POINT('',(-26.5,0.,-5.46152422706632));
#410=CARTESIAN_POINT('',(-26.5,0.,-5.46152422706632));
#411=CARTESIAN_POINT('',(-26.5,8.,-5.46152422706632));
#412=CARTESIAN_POINT('',(-26.5,8.,-5.46152422706632));
#413=CARTESIAN_POINT('',(-26.5,0.,-5.46152422706632));
#414=CARTESIAN_POINT('Origin',(-26.5,0.,-11.9615242270663));
#415=CARTESIAN_POINT('',(-26.5,0.,-18.4615242270663));
#416=CARTESIAN_POINT('Origin',(-26.5,0.,-11.9615242270663));
#417=CARTESIAN_POINT('',(-26.5,8.,-18.4615242270663));
#418=CARTESIAN_POINT('Origin',(-26.5,8.,-11.9615242270663));
#419=CARTESIAN_POINT('',(-26.5,0.,-18.4615242270663));
#420=CARTESIAN_POINT('Origin',(-33.5,0.,-18.4615242270663));
#421=CARTESIAN_POINT('',(-33.5,0.,-18.4615242270663));
#422=CARTESIAN_POINT('',(-33.5,8.,-18.4615242270663));
#423=CARTESIAN_POINT('Origin',(-33.5,0.,-91.9615242270663));
#424=CARTESIAN_POINT('',(-33.5000000000001,0.,-85.4615242270663));
#425=CARTESIAN_POINT('',(-33.5,0.,-98.4615242270663));
#426=CARTESIAN_POINT('Origin',(-33.5,0.,-91.9615242270663));
#427=CARTESIAN_POINT('',(-33.5,8.,-98.4615242270663));
#428=CARTESIAN_POINT('',(-33.5,0.,-98.4615242270663));
#429=CARTESIAN_POINT('',(-33.5000000000001,8.,-85.4615242270663));
#430=CARTESIAN_POINT('Origin',(-33.5,8.,-91.9615242270663));
#431=CARTESIAN_POINT('',(-33.5000000000001,0.,-85.4615242270663));
#432=CARTESIAN_POINT('Origin',(-26.5,0.,-85.4615242270663));
#433=CARTESIAN_POINT('',(-26.5,0.,-85.4615242270663));
#434=CARTESIAN_POINT('',(-26.5,0.,-85.4615242270663));
#435=CARTESIAN_POINT('',(-26.5,8.,-85.4615242270663));
#436=CARTESIAN_POINT('',(-26.5,8.,-85.4615242270663));
#437=CARTESIAN_POINT('',(-26.5,0.,-85.4615242270663));
#438=CARTESIAN_POINT('Origin',(-26.5,0.,-91.9615242270663));
#439=CARTESIAN_POINT('',(-26.5,0.,-98.4615242270663));
#440=CARTESIAN_POINT('Origin',(-26.5,0.,-91.9615242270663));
#441=CARTESIAN_POINT('',(-26.5,8.,-98.4615242270663));
#442=CARTESIAN_POINT('Origin',(-26.5,8.,-91.9615242270663));
#443=CARTESIAN_POINT('',(-26.5,0.,-98.4615242270663));
#444=CARTESIAN_POINT('Origin',(-33.5,0.,-98.4615242270663));
#445=CARTESIAN_POINT('',(-33.5,0.,-98.4615242270663));
#446=CARTESIAN_POINT('',(-33.5,8.,-98.4615242270663));
#447=CARTESIAN_POINT('Origin',(-60.,0.,-103.923048454133));
#448=CARTESIAN_POINT('',(-60.,0.,-103.923048454133));
#449=CARTESIAN_POINT('',(-60.,0.,2.20436423846524E-14));
#450=CARTESIAN_POINT('',(-60.,0.,-103.923048454133));
#451=CARTESIAN_POINT('',(-60.,8.,2.20436423846524E-14));
#452=CARTESIAN_POINT('',(-60.,0.,2.20436423846524E-14));
#453=CARTESIAN_POINT('',(-60.,8.,-103.923048454133));
#454=CARTESIAN_POINT('',(-60.,8.,-103.923048454133));
#455=CARTESIAN_POINT('',(-60.,0.,-103.923048454133));
#456=CARTESIAN_POINT('Origin',(-30.,0.,-51.9615242270663));
#457=CARTESIAN_POINT('',(-4.02209656349782E-14,0.,-103.923048454133));
#458=CARTESIAN_POINT('Origin',(-30.,0.,-51.9615242270663));
#459=CARTESIAN_POINT('',(-4.44089209850063E-14,8.,-103.923048454133));
#460=CARTESIAN_POINT('Origin',(-30.,8.,-51.9615242270663));
#461=CARTESIAN_POINT('',(-4.02209656349782E-14,0.,-103.923048454133));
#462=CARTESIAN_POINT('Origin',(0.,0.,0.));
#463=CARTESIAN_POINT('',(0.,0.,0.));
#464=CARTESIAN_POINT('',(0.,0.,0.));
#465=CARTESIAN_POINT('',(0.,8.,0.));
#466=CARTESIAN_POINT('',(0.,8.,0.));
#467=CARTESIAN_POINT('',(0.,0.,0.));
#468=CARTESIAN_POINT('Origin',(-30.,0.,-51.9615242270663));
#469=CARTESIAN_POINT('Origin',(-30.,0.,-51.9615242270663));
#470=CARTESIAN_POINT('Origin',(-30.,8.,-51.9615242270663));
#471=CARTESIAN_POINT('Origin',(-30.,8.,-51.9615242270663));
#472=CARTESIAN_POINT('Origin',(-30.,0.,-51.9615242270663));
#473=UNCERTAINTY_MEASURE_WITH_UNIT(LENGTH_MEASURE(0.01),#477,
'DISTANCE_ACCURACY_VALUE',
'Maximum model space distance between geometric entities at asserted c
onnectivities');
#474=UNCERTAINTY_MEASURE_WITH_UNIT(LENGTH_MEASURE(0.01),#477,
'DISTANCE_ACCURACY_VALUE',
'Maximum model space distance between geometric entities at asserted c
onnectivities');
#475=(
GEOMETRIC_REPRESENTATION_CONTEXT(3)
GLOBAL_UNCERTAINTY_ASSIGNED_CONTEXT((#473))
GLOBAL_UNIT_ASSIGNED_CONTEXT((#477,#479,#480))
REPRESENTATION_CONTEXT('','3D')
);
#476=(
GEOMETRIC_REPRESENTATION_CONTEXT(3)
GLOBAL_UNCERTAINTY_ASSIGNED_CONTEXT((#474))
GLOBAL_UNIT_ASSIGNED_CONTEXT((#477,#479,#480))
REPRESENTATION_CONTEXT('','3D')
);
#477=(
LENGTH_UNIT()
NAMED_UNIT(*)
SI_UNIT(.MILLI.,.METRE.)
);
#478=(
LENGTH_UNIT()
NAMED_UNIT(*)
SI_UNIT(.CENTI.,.METRE.)
);
#479=(
NAMED_UNIT(*)
PLANE_ANGLE_UNIT()
SI_UNIT($,.RADIAN.)
);
#480=(
NAMED_UNIT(*)
SI_UNIT($,.STERADIAN.)
SOLID_ANGLE_UNIT()
);
#481=SHAPE_DEFINITION_REPRESENTATION(#482,#483);
#482=PRODUCT_DEFINITION_SHAPE('',$,#485);
#483=SHAPE_REPRESENTATION('',(#293),#475);
#484=PRODUCT_DEFINITION_CONTEXT('part definition',#489,'design');
#485=PRODUCT_DEFINITION('41008','41008',#486,#484);
#486=PRODUCT_DEFINITION_FORMATION('',$,#491);
#487=PRODUCT_RELATED_PRODUCT_CATEGORY('41008','41008',(#491));
#488=APPLICATION_PROTOCOL_DEFINITION('international standard',
'automotive_design',2009,#489);
#489=APPLICATION_CONTEXT(
'Core Data for Automotive Mechanical Design Process');
#490=PRODUCT_CONTEXT('part definition',#489,'mechanical');
#491=PRODUCT('41008','41008',$,(#490));
#492=PRESENTATION_STYLE_ASSIGNMENT((#493));
#493=SURFACE_STYLE_USAGE(.BOTH.,#496);
#494=SURFACE_STYLE_RENDERING_WITH_PROPERTIES($,#500,(#495));
#495=SURFACE_STYLE_TRANSPARENT(0.);
#496=SURFACE_SIDE_STYLE('',(#497,#494));
#497=SURFACE_STYLE_FILL_AREA(#498);
#498=FILL_AREA_STYLE('',(#499));
#499=FILL_AREA_STYLE_COLOUR('',#500);
#500=COLOUR_RGB('',0.956862745098039,0.956862745098039,0.956862745098039);
ENDSEC;
END-ISO-10303-21;
