ISO-10303-21;
HEADER;
/* Generated by software containing ST-Developer
 * from STEP Tools, Inc. (www.steptools.com) 
 */

FILE_DESCRIPTION(
/* description */ (''),
/* implementation_level */ '2;1');

FILE_NAME(
/* name */ 
'C:\\Users\\O.Boryczka\\Desktop\\Korrigierte Zeichnungen\\Ronden mit L
ochung V2A\\IPT_Daten\\41013.ipt.step',
/* time_stamp */ '2022-07-18T12:57:01+02:00',
/* author */ ('Abt. Technik'),
/* organization */ ('Beurskens GmbH'),
/* preprocessor_version */ 'ST-DEVELOPER v18.1',
/* originating_system */ 'Autodesk Inventor 2022',
/* authorisation */ '');

FILE_SCHEMA (('AUTOMOTIVE_DESIGN { 1 0 10303 214 3 1 1 }'));
ENDSEC;

DATA;
#10=MECHANICAL_DESIGN_GEOMETRIC_PRESENTATION_REPRESENTATION('',(#13),#173);
#11=SHAPE_REPRESENTATION_RELATIONSHIP('SRR','None',#180,#12);
#12=ADVANCED_BREP_SHAPE_REPRESENTATION('',(#14),#172);
#13=STYLED_ITEM('',(#189),#14);
#14=MANIFOLD_SOLID_BREP('Volumenk\X\F6rper1',#88);
#15=FACE_BOUND('',#30,.T.);
#16=FACE_BOUND('',#31,.T.);
#17=FACE_BOUND('',#33,.T.);
#18=FACE_BOUND('',#34,.T.);
#19=PLANE('',#120);
#20=PLANE('',#121);
#21=FACE_OUTER_BOUND('',#26,.T.);
#22=FACE_OUTER_BOUND('',#27,.T.);
#23=FACE_OUTER_BOUND('',#28,.T.);
#24=FACE_OUTER_BOUND('',#29,.T.);
#25=FACE_OUTER_BOUND('',#32,.T.);
#26=EDGE_LOOP('',(#62,#63,#64,#65));
#27=EDGE_LOOP('',(#66,#67,#68,#69));
#28=EDGE_LOOP('',(#70,#71,#72,#73));
#29=EDGE_LOOP('',(#74));
#30=EDGE_LOOP('',(#75));
#31=EDGE_LOOP('',(#76));
#32=EDGE_LOOP('',(#77));
#33=EDGE_LOOP('',(#78));
#34=EDGE_LOOP('',(#79));
#35=LINE('',#154,#38);
#36=LINE('',#160,#39);
#37=LINE('',#166,#40);
#38=VECTOR('',#128,5.5);
#39=VECTOR('',#135,5.5);
#40=VECTOR('',#142,35.);
#41=CIRCLE('',#112,5.5);
#42=CIRCLE('',#113,5.5);
#43=CIRCLE('',#115,5.5);
#44=CIRCLE('',#116,5.5);
#45=CIRCLE('',#118,35.);
#46=CIRCLE('',#119,35.);
#47=VERTEX_POINT('',#151);
#48=VERTEX_POINT('',#153);
#49=VERTEX_POINT('',#157);
#50=VERTEX_POINT('',#159);
#51=VERTEX_POINT('',#163);
#52=VERTEX_POINT('',#165);
#53=EDGE_CURVE('',#47,#47,#41,.T.);
#54=EDGE_CURVE('',#47,#48,#35,.T.);
#55=EDGE_CURVE('',#48,#48,#42,.T.);
#56=EDGE_CURVE('',#49,#49,#43,.T.);
#57=EDGE_CURVE('',#49,#50,#36,.T.);
#58=EDGE_CURVE('',#50,#50,#44,.T.);
#59=EDGE_CURVE('',#51,#51,#45,.T.);
#60=EDGE_CURVE('',#51,#52,#37,.T.);
#61=EDGE_CURVE('',#52,#52,#46,.T.);
#62=ORIENTED_EDGE('',*,*,#53,.F.);
#63=ORIENTED_EDGE('',*,*,#54,.T.);
#64=ORIENTED_EDGE('',*,*,#55,.T.);
#65=ORIENTED_EDGE('',*,*,#54,.F.);
#66=ORIENTED_EDGE('',*,*,#56,.F.);
#67=ORIENTED_EDGE('',*,*,#57,.T.);
#68=ORIENTED_EDGE('',*,*,#58,.T.);
#69=ORIENTED_EDGE('',*,*,#57,.F.);
#70=ORIENTED_EDGE('',*,*,#59,.F.);
#71=ORIENTED_EDGE('',*,*,#60,.T.);
#72=ORIENTED_EDGE('',*,*,#61,.T.);
#73=ORIENTED_EDGE('',*,*,#60,.F.);
#74=ORIENTED_EDGE('',*,*,#59,.T.);
#75=ORIENTED_EDGE('',*,*,#56,.T.);
#76=ORIENTED_EDGE('',*,*,#53,.T.);
#77=ORIENTED_EDGE('',*,*,#61,.F.);
#78=ORIENTED_EDGE('',*,*,#58,.F.);
#79=ORIENTED_EDGE('',*,*,#55,.F.);
#80=CYLINDRICAL_SURFACE('',#111,5.5);
#81=CYLINDRICAL_SURFACE('',#114,5.5);
#82=CYLINDRICAL_SURFACE('',#117,35.);
#83=ADVANCED_FACE('',(#21),#80,.F.);
#84=ADVANCED_FACE('',(#22),#81,.F.);
#85=ADVANCED_FACE('',(#23),#82,.T.);
#86=ADVANCED_FACE('',(#24,#15,#16),#19,.T.);
#87=ADVANCED_FACE('',(#25,#17,#18),#20,.F.);
#88=CLOSED_SHELL('',(#83,#84,#85,#86,#87));
#89=DERIVED_UNIT_ELEMENT(#92,1.);
#90=DERIVED_UNIT_ELEMENT(#175,-3.);
#91=DIMENSIONAL_EXPONENTS(1.,0.,0.,0.,0.,0.,0.);
#92=(
CONVERSION_BASED_UNIT('gram',#94)
MASS_UNIT()
NAMED_UNIT(#91)
);
#93=(
MASS_UNIT()
NAMED_UNIT(*)
SI_UNIT(.KILO.,.GRAM.)
);
#94=MASS_MEASURE_WITH_UNIT(MASS_MEASURE(0.001),#93);
#95=DERIVED_UNIT((#89,#90));
#96=MEASURE_REPRESENTATION_ITEM('density measure',
POSITIVE_RATIO_MEASURE(8.),#95);
#97=PROPERTY_DEFINITION_REPRESENTATION(#102,#99);
#98=PROPERTY_DEFINITION_REPRESENTATION(#103,#100);
#99=REPRESENTATION('material name',(#101),#172);
#100=REPRESENTATION('density',(#96),#172);
#101=DESCRIPTIVE_REPRESENTATION_ITEM('Edelstahl AISI 304',
'Edelstahl AISI 304');
#102=PROPERTY_DEFINITION('material property','material name',#182);
#103=PROPERTY_DEFINITION('material property','density of part',#182);
#104=DATE_TIME_ROLE('creation_date');
#105=APPLIED_DATE_AND_TIME_ASSIGNMENT(#106,#104,(#182));
#106=DATE_AND_TIME(#107,#108);
#107=CALENDAR_DATE(2021,16,4);
#108=LOCAL_TIME(0,0,0.,#109);
#109=COORDINATED_UNIVERSAL_TIME_OFFSET(0,0,.BEHIND.);
#110=AXIS2_PLACEMENT_3D('placement',#149,#122,#123);
#111=AXIS2_PLACEMENT_3D('',#150,#124,#125);
#112=AXIS2_PLACEMENT_3D('',#152,#126,#127);
#113=AXIS2_PLACEMENT_3D('',#155,#129,#130);
#114=AXIS2_PLACEMENT_3D('',#156,#131,#132);
#115=AXIS2_PLACEMENT_3D('',#158,#133,#134);
#116=AXIS2_PLACEMENT_3D('',#161,#136,#137);
#117=AXIS2_PLACEMENT_3D('',#162,#138,#139);
#118=AXIS2_PLACEMENT_3D('',#164,#140,#141);
#119=AXIS2_PLACEMENT_3D('',#167,#143,#144);
#120=AXIS2_PLACEMENT_3D('',#168,#145,#146);
#121=AXIS2_PLACEMENT_3D('',#169,#147,#148);
#122=DIRECTION('axis',(0.,0.,1.));
#123=DIRECTION('refdir',(1.,0.,0.));
#124=DIRECTION('center_axis',(0.,1.,0.));
#125=DIRECTION('ref_axis',(1.,0.,0.));
#126=DIRECTION('center_axis',(0.,-1.,0.));
#127=DIRECTION('ref_axis',(1.,0.,0.));
#128=DIRECTION('',(0.,-1.,0.));
#129=DIRECTION('center_axis',(0.,-1.,0.));
#130=DIRECTION('ref_axis',(1.,0.,0.));
#131=DIRECTION('center_axis',(0.,1.,0.));
#132=DIRECTION('ref_axis',(1.,0.,0.));
#133=DIRECTION('center_axis',(0.,-1.,0.));
#134=DIRECTION('ref_axis',(1.,0.,0.));
#135=DIRECTION('',(0.,-1.,0.));
#136=DIRECTION('center_axis',(0.,-1.,0.));
#137=DIRECTION('ref_axis',(1.,0.,0.));
#138=DIRECTION('center_axis',(0.,1.,0.));
#139=DIRECTION('ref_axis',(-1.,0.,0.));
#140=DIRECTION('center_axis',(0.,1.,0.));
#141=DIRECTION('ref_axis',(-1.,0.,0.));
#142=DIRECTION('',(0.,-1.,0.));
#143=DIRECTION('center_axis',(0.,1.,0.));
#144=DIRECTION('ref_axis',(-1.,0.,0.));
#145=DIRECTION('center_axis',(0.,1.,0.));
#146=DIRECTION('ref_axis',(0.,0.,1.));
#147=DIRECTION('center_axis',(0.,1.,0.));
#148=DIRECTION('ref_axis',(0.,0.,1.));
#149=CARTESIAN_POINT('',(0.,0.,0.));
#150=CARTESIAN_POINT('Origin',(-25.,0.,0.));
#151=CARTESIAN_POINT('',(-30.5,6.,6.73555739531044E-16));
#152=CARTESIAN_POINT('Origin',(-25.,6.,0.));
#153=CARTESIAN_POINT('',(-30.5,0.,6.73555739531044E-16));
#154=CARTESIAN_POINT('',(-30.5,0.,6.73555739531044E-16));
#155=CARTESIAN_POINT('Origin',(-25.,0.,0.));
#156=CARTESIAN_POINT('Origin',(25.,0.,0.));
#157=CARTESIAN_POINT('',(19.5,6.,6.73555739531044E-16));
#158=CARTESIAN_POINT('Origin',(25.,6.,0.));
#159=CARTESIAN_POINT('',(19.5,0.,6.73555739531044E-16));
#160=CARTESIAN_POINT('',(19.5,0.,6.73555739531044E-16));
#161=CARTESIAN_POINT('Origin',(25.,0.,0.));
#162=CARTESIAN_POINT('Origin',(0.,0.,0.));
#163=CARTESIAN_POINT('',(35.,6.,-4.28626379701574E-15));
#164=CARTESIAN_POINT('Origin',(0.,6.,0.));
#165=CARTESIAN_POINT('',(35.,0.,-4.28626379701574E-15));
#166=CARTESIAN_POINT('',(35.,0.,-4.28626379701574E-15));
#167=CARTESIAN_POINT('Origin',(0.,0.,0.));
#168=CARTESIAN_POINT('Origin',(0.,6.,0.));
#169=CARTESIAN_POINT('Origin',(0.,0.,0.));
#170=UNCERTAINTY_MEASURE_WITH_UNIT(LENGTH_MEASURE(0.01),#174,
'DISTANCE_ACCURACY_VALUE',
'Maximum model space distance between geometric entities at asserted c
onnectivities');
#171=UNCERTAINTY_MEASURE_WITH_UNIT(LENGTH_MEASURE(0.01),#174,
'DISTANCE_ACCURACY_VALUE',
'Maximum model space distance between geometric entities at asserted c
onnectivities');
#172=(
GEOMETRIC_REPRESENTATION_CONTEXT(3)
GLOBAL_UNCERTAINTY_ASSIGNED_CONTEXT((#170))
GLOBAL_UNIT_ASSIGNED_CONTEXT((#174,#176,#177))
REPRESENTATION_CONTEXT('','3D')
);
#173=(
GEOMETRIC_REPRESENTATION_CONTEXT(3)
GLOBAL_UNCERTAINTY_ASSIGNED_CONTEXT((#171))
GLOBAL_UNIT_ASSIGNED_CONTEXT((#174,#176,#177))
REPRESENTATION_CONTEXT('','3D')
);
#174=(
LENGTH_UNIT()
NAMED_UNIT(*)
SI_UNIT(.MILLI.,.METRE.)
);
#175=(
LENGTH_UNIT()
NAMED_UNIT(*)
SI_UNIT(.CENTI.,.METRE.)
);
#176=(
NAMED_UNIT(*)
PLANE_ANGLE_UNIT()
SI_UNIT($,.RADIAN.)
);
#177=(
NAMED_UNIT(*)
SI_UNIT($,.STERADIAN.)
SOLID_ANGLE_UNIT()
);
#178=SHAPE_DEFINITION_REPRESENTATION(#179,#180);
#179=PRODUCT_DEFINITION_SHAPE('',$,#182);
#180=SHAPE_REPRESENTATION('',(#110),#172);
#181=PRODUCT_DEFINITION_CONTEXT('part definition',#186,'design');
#182=PRODUCT_DEFINITION('41013','41013',#183,#181);
#183=PRODUCT_DEFINITION_FORMATION('',$,#188);
#184=PRODUCT_RELATED_PRODUCT_CATEGORY('41013','41013',(#188));
#185=APPLICATION_PROTOCOL_DEFINITION('international standard',
'automotive_design',2009,#186);
#186=APPLICATION_CONTEXT(
'Core Data for Automotive Mechanical Design Process');
#187=PRODUCT_CONTEXT('part definition',#186,'mechanical');
#188=PRODUCT('41013','41013',$,(#187));
#189=PRESENTATION_STYLE_ASSIGNMENT((#190));
#190=SURFACE_STYLE_USAGE(.BOTH.,#193);
#191=SURFACE_STYLE_RENDERING_WITH_PROPERTIES($,#197,(#192));
#192=SURFACE_STYLE_TRANSPARENT(0.);
#193=SURFACE_SIDE_STYLE('',(#194,#191));
#194=SURFACE_STYLE_FILL_AREA(#195);
#195=FILL_AREA_STYLE('',(#196));
#196=FILL_AREA_STYLE_COLOUR('',#197);
#197=COLOUR_RGB('',0.956862745098039,0.956862745098039,0.956862745098039);
ENDSEC;
END-ISO-10303-21;
