ISO-10303-21;
HEADER;
/* Generated by software containing ST-Developer
 * from STEP Tools, Inc. (www.steptools.com) 
 */

FILE_DESCRIPTION(
/* description */ (''),
/* implementation_level */ '2;1');

FILE_NAME(
/* name */ 
'C:\\Users\\O.Boryczka\\Desktop\\Korrigierte Zeichnungen\\Schalen V2A\\
IPT_Daten\\41050.ipt.step',
/* time_stamp */ '2022-07-18T12:57:47+02:00',
/* author */ ('Abt. Technik'),
/* organization */ (''),
/* preprocessor_version */ 'ST-DEVELOPER v18.1',
/* originating_system */ 'Autodesk Inventor 2022',
/* authorisation */ '');

FILE_SCHEMA (('AUTOMOTIVE_DESIGN { 1 0 10303 214 3 1 1 }'));
ENDSEC;

DATA;
#10=MECHANICAL_DESIGN_GEOMETRIC_PRESENTATION_REPRESENTATION('',(#16,#17),
#100);
#11=GEOMETRICALLY_BOUNDED_WIREFRAME_SHAPE_REPRESENTATION('',(#12),#99);
#12=GEOMETRIC_CURVE_SET('Skizze1',(#30,#96));
#13=SHAPE_REPRESENTATION_RELATIONSHIP('SRR','None',#107,#15);
#14=SHAPE_REPRESENTATION_RELATIONSHIP('SRR','None',#107,#11);
#15=ADVANCED_BREP_SHAPE_REPRESENTATION('',(#18),#99);
#16=STYLED_ITEM('',(#116),#18);
#17=STYLED_ITEM('',(#118),#30);
#18=MANIFOLD_SOLID_BREP('Volumenk\X\F6rper1',#44);
#19=FACE_BOUND('',#26,.T.);
#20=PLANE('',#69);
#21=FACE_OUTER_BOUND('',#24,.T.);
#22=FACE_OUTER_BOUND('',#25,.T.);
#23=FACE_OUTER_BOUND('',#27,.T.);
#24=EDGE_LOOP('',(#35));
#25=EDGE_LOOP('',(#36));
#26=EDGE_LOOP('',(#37));
#27=EDGE_LOOP('',(#38));
#28=CIRCLE('',#68,11.399013115178);
#29=CIRCLE('',#70,13.5);
#30=CIRCLE('',#72,13.5);
#31=VERTEX_POINT('',#89);
#32=VERTEX_POINT('',#92);
#33=EDGE_CURVE('',#31,#31,#28,.T.);
#34=EDGE_CURVE('',#32,#32,#29,.T.);
#35=ORIENTED_EDGE('',*,*,#33,.F.);
#36=ORIENTED_EDGE('',*,*,#34,.F.);
#37=ORIENTED_EDGE('',*,*,#33,.T.);
#38=ORIENTED_EDGE('',*,*,#34,.T.);
#39=SPHERICAL_SURFACE('',#67,16.6875);
#40=SPHERICAL_SURFACE('',#71,18.1875);
#41=ADVANCED_FACE('',(#21),#39,.F.);
#42=ADVANCED_FACE('',(#22,#19),#20,.T.);
#43=ADVANCED_FACE('',(#23),#40,.T.);
#44=CLOSED_SHELL('',(#41,#42,#43));
#45=DERIVED_UNIT_ELEMENT(#48,1.);
#46=DERIVED_UNIT_ELEMENT(#102,-3.);
#47=DIMENSIONAL_EXPONENTS(1.,0.,0.,0.,0.,0.,0.);
#48=(
CONVERSION_BASED_UNIT('gram',#50)
MASS_UNIT()
NAMED_UNIT(#47)
);
#49=(
MASS_UNIT()
NAMED_UNIT(*)
SI_UNIT(.KILO.,.GRAM.)
);
#50=MASS_MEASURE_WITH_UNIT(MASS_MEASURE(0.001),#49);
#51=DERIVED_UNIT((#45,#46));
#52=MEASURE_REPRESENTATION_ITEM('density measure',
POSITIVE_RATIO_MEASURE(8.),#51);
#53=PROPERTY_DEFINITION_REPRESENTATION(#58,#55);
#54=PROPERTY_DEFINITION_REPRESENTATION(#59,#56);
#55=REPRESENTATION('material name',(#57),#99);
#56=REPRESENTATION('density',(#52),#99);
#57=DESCRIPTIVE_REPRESENTATION_ITEM('Edelstahl AISI 304',
'Edelstahl AISI 304');
#58=PROPERTY_DEFINITION('material property','material name',#109);
#59=PROPERTY_DEFINITION('material property','density of part',#109);
#60=DATE_TIME_ROLE('creation_date');
#61=APPLIED_DATE_AND_TIME_ASSIGNMENT(#62,#60,(#109));
#62=DATE_AND_TIME(#63,#64);
#63=CALENDAR_DATE(2021,26,4);
#64=LOCAL_TIME(0,0,0.,#65);
#65=COORDINATED_UNIVERSAL_TIME_OFFSET(0,0,.BEHIND.);
#66=AXIS2_PLACEMENT_3D('placement',#87,#73,#74);
#67=AXIS2_PLACEMENT_3D('',#88,#75,#76);
#68=AXIS2_PLACEMENT_3D('',#90,#77,#78);
#69=AXIS2_PLACEMENT_3D('',#91,#79,#80);
#70=AXIS2_PLACEMENT_3D('',#93,#81,#82);
#71=AXIS2_PLACEMENT_3D('',#94,#83,#84);
#72=AXIS2_PLACEMENT_3D('',#95,#85,#86);
#73=DIRECTION('axis',(0.,0.,1.));
#74=DIRECTION('refdir',(1.,0.,0.));
#75=DIRECTION('center_axis',(6.12323399573677E-17,0.,1.));
#76=DIRECTION('ref_axis',(1.,0.,0.));
#77=DIRECTION('center_axis',(0.,1.,0.));
#78=DIRECTION('ref_axis',(0.,0.,1.));
#79=DIRECTION('center_axis',(0.,-1.,0.));
#80=DIRECTION('ref_axis',(0.,0.,-1.));
#81=DIRECTION('center_axis',(0.,1.,0.));
#82=DIRECTION('ref_axis',(1.,0.,0.));
#83=DIRECTION('center_axis',(6.12323399573677E-17,0.,1.));
#84=DIRECTION('ref_axis',(1.,0.,0.));
#85=DIRECTION('center_axis',(0.,1.,0.));
#86=DIRECTION('ref_axis',(-1.,0.,0.));
#87=CARTESIAN_POINT('',(0.,0.,0.));
#88=CARTESIAN_POINT('Origin',(1.45845270017309E-16,-12.1875,0.));
#89=CARTESIAN_POINT('',(-1.25013122247683E-15,0.,-11.399013115178));
#90=CARTESIAN_POINT('Origin',(1.45845270017309E-16,0.,0.));
#91=CARTESIAN_POINT('Origin',(-13.5,-3.67394039744206E-16,0.));
#92=CARTESIAN_POINT('',(-13.5,-3.67394039744206E-16,0.));
#93=CARTESIAN_POINT('Origin',(0.,-5.55111512312578E-16,0.));
#94=CARTESIAN_POINT('Origin',(1.45845270017309E-16,-12.1875,0.));
#95=CARTESIAN_POINT('Origin',(0.,0.,0.));
#96=CARTESIAN_POINT('',(0.,0.,0.));
#97=UNCERTAINTY_MEASURE_WITH_UNIT(LENGTH_MEASURE(0.01),#101,
'DISTANCE_ACCURACY_VALUE',
'Maximum model space distance between geometric entities at asserted c
onnectivities');
#98=UNCERTAINTY_MEASURE_WITH_UNIT(LENGTH_MEASURE(0.01),#101,
'DISTANCE_ACCURACY_VALUE',
'Maximum model space distance between geometric entities at asserted c
onnectivities');
#99=(
GEOMETRIC_REPRESENTATION_CONTEXT(3)
GLOBAL_UNCERTAINTY_ASSIGNED_CONTEXT((#97))
GLOBAL_UNIT_ASSIGNED_CONTEXT((#101,#103,#104))
REPRESENTATION_CONTEXT('','3D')
);
#100=(
GEOMETRIC_REPRESENTATION_CONTEXT(3)
GLOBAL_UNCERTAINTY_ASSIGNED_CONTEXT((#98))
GLOBAL_UNIT_ASSIGNED_CONTEXT((#101,#103,#104))
REPRESENTATION_CONTEXT('','3D')
);
#101=(
LENGTH_UNIT()
NAMED_UNIT(*)
SI_UNIT(.MILLI.,.METRE.)
);
#102=(
LENGTH_UNIT()
NAMED_UNIT(*)
SI_UNIT(.CENTI.,.METRE.)
);
#103=(
NAMED_UNIT(*)
PLANE_ANGLE_UNIT()
SI_UNIT($,.RADIAN.)
);
#104=(
NAMED_UNIT(*)
SI_UNIT($,.STERADIAN.)
SOLID_ANGLE_UNIT()
);
#105=SHAPE_DEFINITION_REPRESENTATION(#106,#107);
#106=PRODUCT_DEFINITION_SHAPE('',$,#109);
#107=SHAPE_REPRESENTATION('',(#66),#99);
#108=PRODUCT_DEFINITION_CONTEXT('part definition',#113,'design');
#109=PRODUCT_DEFINITION('41050','41050',#110,#108);
#110=PRODUCT_DEFINITION_FORMATION('',$,#115);
#111=PRODUCT_RELATED_PRODUCT_CATEGORY('41050','41050',(#115));
#112=APPLICATION_PROTOCOL_DEFINITION('international standard',
'automotive_design',2009,#113);
#113=APPLICATION_CONTEXT(
'Core Data for Automotive Mechanical Design Process');
#114=PRODUCT_CONTEXT('part definition',#113,'mechanical');
#115=PRODUCT('41050','41050',$,(#114));
#116=PRESENTATION_STYLE_ASSIGNMENT((#119));
#117=PRESENTATION_STYLE_ASSIGNMENT((#120));
#118=PRESENTATION_STYLE_ASSIGNMENT((#121));
#119=SURFACE_STYLE_USAGE(.BOTH.,#124);
#120=SURFACE_STYLE_USAGE(.BOTH.,#125);
#121=SURFACE_STYLE_USAGE(.BOTH.,#126);
#122=SURFACE_STYLE_RENDERING_WITH_PROPERTIES($,#136,(#123));
#123=SURFACE_STYLE_TRANSPARENT(0.);
#124=SURFACE_SIDE_STYLE('',(#127,#122));
#125=SURFACE_SIDE_STYLE('',(#128));
#126=SURFACE_SIDE_STYLE('',(#129));
#127=SURFACE_STYLE_FILL_AREA(#130);
#128=SURFACE_STYLE_FILL_AREA(#131);
#129=SURFACE_STYLE_FILL_AREA(#132);
#130=FILL_AREA_STYLE('',(#133));
#131=FILL_AREA_STYLE('',(#134));
#132=FILL_AREA_STYLE('',(#135));
#133=FILL_AREA_STYLE_COLOUR('',#136);
#134=FILL_AREA_STYLE_COLOUR('',#137);
#135=FILL_AREA_STYLE_COLOUR('',#138);
#136=COLOUR_RGB('',0.956862745098039,0.956862745098039,0.956862745098039);
#137=COLOUR_RGB('',1.,1.,0.);
#138=COLOUR_RGB('',0.,0.,0.501960784313725);
ENDSEC;
END-ISO-10303-21;
