ISO-10303-21;
HEADER;
/* Generated by software containing ST-Developer
 * from STEP Tools, Inc. (www.steptools.com) 
 */

FILE_DESCRIPTION(
/* description */ (''),
/* implementation_level */ '2;1');

FILE_NAME(
/* name */ 
'C:\\Users\\O.Boryczka\\Desktop\\Korrigierte Zeichnungen\\Ronden mit M
ittelloch V2A\\IPT_Daten\\41100.ipt.step',
/* time_stamp */ '2022-07-18T12:57:07+02:00',
/* author */ ('Abt. Technik'),
/* organization */ ('Beurskens GmbH'),
/* preprocessor_version */ 'ST-DEVELOPER v18.1',
/* originating_system */ 'Autodesk Inventor 2022',
/* authorisation */ '');

FILE_SCHEMA (('AUTOMOTIVE_DESIGN { 1 0 10303 214 3 1 1 }'));
ENDSEC;

DATA;
#10=MECHANICAL_DESIGN_GEOMETRIC_PRESENTATION_REPRESENTATION('',(#13),#212);
#11=SHAPE_REPRESENTATION_RELATIONSHIP('SRR','None',#219,#12);
#12=ADVANCED_BREP_SHAPE_REPRESENTATION('',(#14),#211);
#13=STYLED_ITEM('',(#228),#14);
#14=MANIFOLD_SOLID_BREP('Volumenk\X\F6rper1',#111);
#15=FACE_BOUND('',#34,.T.);
#16=FACE_BOUND('',#35,.T.);
#17=FACE_BOUND('',#36,.T.);
#18=FACE_BOUND('',#38,.T.);
#19=FACE_BOUND('',#39,.T.);
#20=FACE_BOUND('',#40,.T.);
#21=PLANE('',#146);
#22=PLANE('',#147);
#23=FACE_OUTER_BOUND('',#29,.T.);
#24=FACE_OUTER_BOUND('',#30,.T.);
#25=FACE_OUTER_BOUND('',#31,.T.);
#26=FACE_OUTER_BOUND('',#32,.T.);
#27=FACE_OUTER_BOUND('',#33,.T.);
#28=FACE_OUTER_BOUND('',#37,.T.);
#29=EDGE_LOOP('',(#77,#78,#79,#80));
#30=EDGE_LOOP('',(#81,#82,#83,#84));
#31=EDGE_LOOP('',(#85,#86,#87,#88));
#32=EDGE_LOOP('',(#89,#90,#91,#92));
#33=EDGE_LOOP('',(#93));
#34=EDGE_LOOP('',(#94));
#35=EDGE_LOOP('',(#95));
#36=EDGE_LOOP('',(#96));
#37=EDGE_LOOP('',(#97));
#38=EDGE_LOOP('',(#98));
#39=EDGE_LOOP('',(#99));
#40=EDGE_LOOP('',(#100));
#41=LINE('',#187,#45);
#42=LINE('',#193,#46);
#43=LINE('',#199,#47);
#44=LINE('',#205,#48);
#45=VECTOR('',#154,5.5);
#46=VECTOR('',#161,21.35);
#47=VECTOR('',#168,5.5);
#48=VECTOR('',#175,60.);
#49=CIRCLE('',#135,5.5);
#50=CIRCLE('',#136,5.5);
#51=CIRCLE('',#138,21.35);
#52=CIRCLE('',#139,21.35);
#53=CIRCLE('',#141,5.5);
#54=CIRCLE('',#142,5.5);
#55=CIRCLE('',#144,60.);
#56=CIRCLE('',#145,60.);
#57=VERTEX_POINT('',#184);
#58=VERTEX_POINT('',#186);
#59=VERTEX_POINT('',#190);
#60=VERTEX_POINT('',#192);
#61=VERTEX_POINT('',#196);
#62=VERTEX_POINT('',#198);
#63=VERTEX_POINT('',#202);
#64=VERTEX_POINT('',#204);
#65=EDGE_CURVE('',#57,#57,#49,.T.);
#66=EDGE_CURVE('',#57,#58,#41,.T.);
#67=EDGE_CURVE('',#58,#58,#50,.T.);
#68=EDGE_CURVE('',#59,#59,#51,.T.);
#69=EDGE_CURVE('',#59,#60,#42,.T.);
#70=EDGE_CURVE('',#60,#60,#52,.T.);
#71=EDGE_CURVE('',#61,#61,#53,.T.);
#72=EDGE_CURVE('',#61,#62,#43,.T.);
#73=EDGE_CURVE('',#62,#62,#54,.T.);
#74=EDGE_CURVE('',#63,#63,#55,.T.);
#75=EDGE_CURVE('',#63,#64,#44,.T.);
#76=EDGE_CURVE('',#64,#64,#56,.T.);
#77=ORIENTED_EDGE('',*,*,#65,.F.);
#78=ORIENTED_EDGE('',*,*,#66,.T.);
#79=ORIENTED_EDGE('',*,*,#67,.T.);
#80=ORIENTED_EDGE('',*,*,#66,.F.);
#81=ORIENTED_EDGE('',*,*,#68,.F.);
#82=ORIENTED_EDGE('',*,*,#69,.T.);
#83=ORIENTED_EDGE('',*,*,#70,.T.);
#84=ORIENTED_EDGE('',*,*,#69,.F.);
#85=ORIENTED_EDGE('',*,*,#71,.F.);
#86=ORIENTED_EDGE('',*,*,#72,.T.);
#87=ORIENTED_EDGE('',*,*,#73,.T.);
#88=ORIENTED_EDGE('',*,*,#72,.F.);
#89=ORIENTED_EDGE('',*,*,#74,.F.);
#90=ORIENTED_EDGE('',*,*,#75,.T.);
#91=ORIENTED_EDGE('',*,*,#76,.T.);
#92=ORIENTED_EDGE('',*,*,#75,.F.);
#93=ORIENTED_EDGE('',*,*,#74,.T.);
#94=ORIENTED_EDGE('',*,*,#71,.T.);
#95=ORIENTED_EDGE('',*,*,#68,.T.);
#96=ORIENTED_EDGE('',*,*,#65,.T.);
#97=ORIENTED_EDGE('',*,*,#76,.F.);
#98=ORIENTED_EDGE('',*,*,#73,.F.);
#99=ORIENTED_EDGE('',*,*,#70,.F.);
#100=ORIENTED_EDGE('',*,*,#67,.F.);
#101=CYLINDRICAL_SURFACE('',#134,5.5);
#102=CYLINDRICAL_SURFACE('',#137,21.35);
#103=CYLINDRICAL_SURFACE('',#140,5.5);
#104=CYLINDRICAL_SURFACE('',#143,60.);
#105=ADVANCED_FACE('',(#23),#101,.F.);
#106=ADVANCED_FACE('',(#24),#102,.F.);
#107=ADVANCED_FACE('',(#25),#103,.F.);
#108=ADVANCED_FACE('',(#26),#104,.T.);
#109=ADVANCED_FACE('',(#27,#15,#16,#17),#21,.T.);
#110=ADVANCED_FACE('',(#28,#18,#19,#20),#22,.F.);
#111=CLOSED_SHELL('',(#105,#106,#107,#108,#109,#110));
#112=DERIVED_UNIT_ELEMENT(#115,1.);
#113=DERIVED_UNIT_ELEMENT(#214,-3.);
#114=DIMENSIONAL_EXPONENTS(1.,0.,0.,0.,0.,0.,0.);
#115=(
CONVERSION_BASED_UNIT('gram',#117)
MASS_UNIT()
NAMED_UNIT(#114)
);
#116=(
MASS_UNIT()
NAMED_UNIT(*)
SI_UNIT(.KILO.,.GRAM.)
);
#117=MASS_MEASURE_WITH_UNIT(MASS_MEASURE(0.001),#116);
#118=DERIVED_UNIT((#112,#113));
#119=MEASURE_REPRESENTATION_ITEM('density measure',
POSITIVE_RATIO_MEASURE(8.),#118);
#120=PROPERTY_DEFINITION_REPRESENTATION(#125,#122);
#121=PROPERTY_DEFINITION_REPRESENTATION(#126,#123);
#122=REPRESENTATION('material name',(#124),#211);
#123=REPRESENTATION('density',(#119),#211);
#124=DESCRIPTIVE_REPRESENTATION_ITEM('Edelstahl AISI 304',
'Edelstahl AISI 304');
#125=PROPERTY_DEFINITION('material property','material name',#221);
#126=PROPERTY_DEFINITION('material property','density of part',#221);
#127=DATE_TIME_ROLE('creation_date');
#128=APPLIED_DATE_AND_TIME_ASSIGNMENT(#129,#127,(#221));
#129=DATE_AND_TIME(#130,#131);
#130=CALENDAR_DATE(2021,14,4);
#131=LOCAL_TIME(0,0,0.,#132);
#132=COORDINATED_UNIVERSAL_TIME_OFFSET(0,0,.BEHIND.);
#133=AXIS2_PLACEMENT_3D('placement',#182,#148,#149);
#134=AXIS2_PLACEMENT_3D('',#183,#150,#151);
#135=AXIS2_PLACEMENT_3D('',#185,#152,#153);
#136=AXIS2_PLACEMENT_3D('',#188,#155,#156);
#137=AXIS2_PLACEMENT_3D('',#189,#157,#158);
#138=AXIS2_PLACEMENT_3D('',#191,#159,#160);
#139=AXIS2_PLACEMENT_3D('',#194,#162,#163);
#140=AXIS2_PLACEMENT_3D('',#195,#164,#165);
#141=AXIS2_PLACEMENT_3D('',#197,#166,#167);
#142=AXIS2_PLACEMENT_3D('',#200,#169,#170);
#143=AXIS2_PLACEMENT_3D('',#201,#171,#172);
#144=AXIS2_PLACEMENT_3D('',#203,#173,#174);
#145=AXIS2_PLACEMENT_3D('',#206,#176,#177);
#146=AXIS2_PLACEMENT_3D('',#207,#178,#179);
#147=AXIS2_PLACEMENT_3D('',#208,#180,#181);
#148=DIRECTION('axis',(0.,0.,1.));
#149=DIRECTION('refdir',(1.,0.,0.));
#150=DIRECTION('center_axis',(0.,1.,0.));
#151=DIRECTION('ref_axis',(1.,0.,0.));
#152=DIRECTION('center_axis',(0.,-1.,0.));
#153=DIRECTION('ref_axis',(1.,0.,0.));
#154=DIRECTION('',(0.,-1.,0.));
#155=DIRECTION('center_axis',(0.,-1.,0.));
#156=DIRECTION('ref_axis',(1.,0.,0.));
#157=DIRECTION('center_axis',(0.,1.,0.));
#158=DIRECTION('ref_axis',(1.,0.,0.));
#159=DIRECTION('center_axis',(0.,-1.,0.));
#160=DIRECTION('ref_axis',(1.,0.,0.));
#161=DIRECTION('',(0.,-1.,0.));
#162=DIRECTION('center_axis',(0.,-1.,0.));
#163=DIRECTION('ref_axis',(1.,0.,0.));
#164=DIRECTION('center_axis',(0.,1.,0.));
#165=DIRECTION('ref_axis',(1.,0.,0.));
#166=DIRECTION('center_axis',(0.,-1.,0.));
#167=DIRECTION('ref_axis',(1.,0.,0.));
#168=DIRECTION('',(0.,-1.,0.));
#169=DIRECTION('center_axis',(0.,-1.,0.));
#170=DIRECTION('ref_axis',(1.,0.,0.));
#171=DIRECTION('center_axis',(0.,1.,0.));
#172=DIRECTION('ref_axis',(-1.,0.,0.));
#173=DIRECTION('center_axis',(0.,1.,0.));
#174=DIRECTION('ref_axis',(-1.,0.,0.));
#175=DIRECTION('',(0.,-1.,0.));
#176=DIRECTION('center_axis',(0.,1.,0.));
#177=DIRECTION('ref_axis',(-1.,0.,0.));
#178=DIRECTION('center_axis',(0.,1.,0.));
#179=DIRECTION('ref_axis',(0.,0.,1.));
#180=DIRECTION('center_axis',(0.,1.,0.));
#181=DIRECTION('ref_axis',(0.,0.,1.));
#182=CARTESIAN_POINT('',(0.,0.,0.));
#183=CARTESIAN_POINT('Origin',(0.,0.,-45.));
#184=CARTESIAN_POINT('',(-5.5,6.,-45.));
#185=CARTESIAN_POINT('Origin',(0.,6.,-45.));
#186=CARTESIAN_POINT('',(-5.5,0.,-45.));
#187=CARTESIAN_POINT('',(-5.5,0.,-45.));
#188=CARTESIAN_POINT('Origin',(0.,0.,-45.));
#189=CARTESIAN_POINT('Origin',(0.,0.,0.));
#190=CARTESIAN_POINT('',(-21.35,6.,2.6146209161796E-15));
#191=CARTESIAN_POINT('Origin',(0.,6.,0.));
#192=CARTESIAN_POINT('',(-21.35,0.,2.6146209161796E-15));
#193=CARTESIAN_POINT('',(-21.35,0.,2.6146209161796E-15));
#194=CARTESIAN_POINT('Origin',(0.,0.,0.));
#195=CARTESIAN_POINT('Origin',(0.,0.,45.));
#196=CARTESIAN_POINT('',(-5.5,6.,45.));
#197=CARTESIAN_POINT('Origin',(0.,6.,45.));
#198=CARTESIAN_POINT('',(-5.5,0.,45.));
#199=CARTESIAN_POINT('',(-5.5,0.,45.));
#200=CARTESIAN_POINT('Origin',(0.,0.,45.));
#201=CARTESIAN_POINT('Origin',(0.,0.,0.));
#202=CARTESIAN_POINT('',(60.,6.,-7.34788079488412E-15));
#203=CARTESIAN_POINT('Origin',(0.,6.,0.));
#204=CARTESIAN_POINT('',(60.,0.,-7.34788079488412E-15));
#205=CARTESIAN_POINT('',(60.,0.,-7.34788079488412E-15));
#206=CARTESIAN_POINT('Origin',(0.,0.,0.));
#207=CARTESIAN_POINT('Origin',(0.,6.,0.));
#208=CARTESIAN_POINT('Origin',(0.,0.,0.));
#209=UNCERTAINTY_MEASURE_WITH_UNIT(LENGTH_MEASURE(0.01),#213,
'DISTANCE_ACCURACY_VALUE',
'Maximum model space distance between geometric entities at asserted c
onnectivities');
#210=UNCERTAINTY_MEASURE_WITH_UNIT(LENGTH_MEASURE(0.01),#213,
'DISTANCE_ACCURACY_VALUE',
'Maximum model space distance between geometric entities at asserted c
onnectivities');
#211=(
GEOMETRIC_REPRESENTATION_CONTEXT(3)
GLOBAL_UNCERTAINTY_ASSIGNED_CONTEXT((#209))
GLOBAL_UNIT_ASSIGNED_CONTEXT((#213,#215,#216))
REPRESENTATION_CONTEXT('','3D')
);
#212=(
GEOMETRIC_REPRESENTATION_CONTEXT(3)
GLOBAL_UNCERTAINTY_ASSIGNED_CONTEXT((#210))
GLOBAL_UNIT_ASSIGNED_CONTEXT((#213,#215,#216))
REPRESENTATION_CONTEXT('','3D')
);
#213=(
LENGTH_UNIT()
NAMED_UNIT(*)
SI_UNIT(.MILLI.,.METRE.)
);
#214=(
LENGTH_UNIT()
NAMED_UNIT(*)
SI_UNIT(.CENTI.,.METRE.)
);
#215=(
NAMED_UNIT(*)
PLANE_ANGLE_UNIT()
SI_UNIT($,.RADIAN.)
);
#216=(
NAMED_UNIT(*)
SI_UNIT($,.STERADIAN.)
SOLID_ANGLE_UNIT()
);
#217=SHAPE_DEFINITION_REPRESENTATION(#218,#219);
#218=PRODUCT_DEFINITION_SHAPE('',$,#221);
#219=SHAPE_REPRESENTATION('',(#133),#211);
#220=PRODUCT_DEFINITION_CONTEXT('part definition',#225,'design');
#221=PRODUCT_DEFINITION('41100','41100',#222,#220);
#222=PRODUCT_DEFINITION_FORMATION('',$,#227);
#223=PRODUCT_RELATED_PRODUCT_CATEGORY('41100','41100',(#227));
#224=APPLICATION_PROTOCOL_DEFINITION('international standard',
'automotive_design',2009,#225);
#225=APPLICATION_CONTEXT(
'Core Data for Automotive Mechanical Design Process');
#226=PRODUCT_CONTEXT('part definition',#225,'mechanical');
#227=PRODUCT('41100','41100',$,(#226));
#228=PRESENTATION_STYLE_ASSIGNMENT((#229));
#229=SURFACE_STYLE_USAGE(.BOTH.,#232);
#230=SURFACE_STYLE_RENDERING_WITH_PROPERTIES($,#236,(#231));
#231=SURFACE_STYLE_TRANSPARENT(0.);
#232=SURFACE_SIDE_STYLE('',(#233,#230));
#233=SURFACE_STYLE_FILL_AREA(#234);
#234=FILL_AREA_STYLE('',(#235));
#235=FILL_AREA_STYLE_COLOUR('',#236);
#236=COLOUR_RGB('',0.956862745098039,0.956862745098039,0.956862745098039);
ENDSEC;
END-ISO-10303-21;
