ISO-10303-21;
HEADER;
/* Generated by software containing ST-Developer
 * from STEP Tools, Inc. (www.steptools.com) 
 */

FILE_DESCRIPTION(
/* description */ (''),
/* implementation_level */ '2;1');

FILE_NAME(
/* name */ 
'C:\\Users\\O.Boryczka\\Desktop\\Korrigierte Zeichnungen\\Ankerplatten
\\Ankerplatten V2A viereckig\\IPT_Daten\\41111.ipt.step',
/* time_stamp */ '2022-07-18T12:52:57+02:00',
/* author */ ('Nutzer'),
/* organization */ (''),
/* preprocessor_version */ 'ST-DEVELOPER v18.1',
/* originating_system */ 'Autodesk Inventor 2022',
/* authorisation */ '');

FILE_SCHEMA (('AUTOMOTIVE_DESIGN { 1 0 10303 214 3 1 1 }'));
ENDSEC;

DATA;
#10=MECHANICAL_DESIGN_GEOMETRIC_PRESENTATION_REPRESENTATION('',(#13),#348);
#11=SHAPE_REPRESENTATION_RELATIONSHIP('SRR','None',#355,#12);
#12=ADVANCED_BREP_SHAPE_REPRESENTATION('',(#14),#347);
#13=STYLED_ITEM('',(#364),#14);
#14=MANIFOLD_SOLID_BREP('Volumenk\X\F6rper1',#199);
#15=FACE_BOUND('',#48,.T.);
#16=FACE_BOUND('',#49,.T.);
#17=FACE_BOUND('',#50,.T.);
#18=FACE_BOUND('',#51,.T.);
#19=FACE_BOUND('',#53,.T.);
#20=FACE_BOUND('',#54,.T.);
#21=FACE_BOUND('',#55,.T.);
#22=FACE_BOUND('',#56,.T.);
#23=PLANE('',#234);
#24=PLANE('',#235);
#25=PLANE('',#236);
#26=PLANE('',#237);
#27=PLANE('',#238);
#28=PLANE('',#239);
#29=FACE_OUTER_BOUND('',#39,.T.);
#30=FACE_OUTER_BOUND('',#40,.T.);
#31=FACE_OUTER_BOUND('',#41,.T.);
#32=FACE_OUTER_BOUND('',#42,.T.);
#33=FACE_OUTER_BOUND('',#43,.T.);
#34=FACE_OUTER_BOUND('',#44,.T.);
#35=FACE_OUTER_BOUND('',#45,.T.);
#36=FACE_OUTER_BOUND('',#46,.T.);
#37=FACE_OUTER_BOUND('',#47,.T.);
#38=FACE_OUTER_BOUND('',#52,.T.);
#39=EDGE_LOOP('',(#137,#138,#139,#140));
#40=EDGE_LOOP('',(#141,#142,#143,#144));
#41=EDGE_LOOP('',(#145,#146,#147,#148));
#42=EDGE_LOOP('',(#149,#150,#151,#152));
#43=EDGE_LOOP('',(#153,#154,#155,#156));
#44=EDGE_LOOP('',(#157,#158,#159,#160));
#45=EDGE_LOOP('',(#161,#162,#163,#164));
#46=EDGE_LOOP('',(#165,#166,#167,#168));
#47=EDGE_LOOP('',(#169,#170,#171,#172));
#48=EDGE_LOOP('',(#173));
#49=EDGE_LOOP('',(#174));
#50=EDGE_LOOP('',(#175));
#51=EDGE_LOOP('',(#176));
#52=EDGE_LOOP('',(#177,#178,#179,#180));
#53=EDGE_LOOP('',(#181));
#54=EDGE_LOOP('',(#182));
#55=EDGE_LOOP('',(#183));
#56=EDGE_LOOP('',(#184));
#57=LINE('',#299,#73);
#58=LINE('',#305,#74);
#59=LINE('',#311,#75);
#60=LINE('',#317,#76);
#61=LINE('',#322,#77);
#62=LINE('',#324,#78);
#63=LINE('',#326,#79);
#64=LINE('',#327,#80);
#65=LINE('',#330,#81);
#66=LINE('',#332,#82);
#67=LINE('',#333,#83);
#68=LINE('',#336,#84);
#69=LINE('',#338,#85);
#70=LINE('',#339,#86);
#71=LINE('',#341,#87);
#72=LINE('',#342,#88);
#73=VECTOR('',#246,6.5);
#74=VECTOR('',#253,6.5);
#75=VECTOR('',#260,6.5);
#76=VECTOR('',#267,6.5);
#77=VECTOR('',#272,10.);
#78=VECTOR('',#273,10.);
#79=VECTOR('',#274,10.);
#80=VECTOR('',#275,10.);
#81=VECTOR('',#278,10.);
#82=VECTOR('',#279,10.);
#83=VECTOR('',#280,10.);
#84=VECTOR('',#283,10.);
#85=VECTOR('',#284,10.);
#86=VECTOR('',#285,10.);
#87=VECTOR('',#288,10.);
#88=VECTOR('',#289,10.);
#89=CIRCLE('',#223,6.5);
#90=CIRCLE('',#224,6.5);
#91=CIRCLE('',#226,6.5);
#92=CIRCLE('',#227,6.5);
#93=CIRCLE('',#229,6.5);
#94=CIRCLE('',#230,6.5);
#95=CIRCLE('',#232,6.5);
#96=CIRCLE('',#233,6.5);
#97=VERTEX_POINT('',#296);
#98=VERTEX_POINT('',#298);
#99=VERTEX_POINT('',#302);
#100=VERTEX_POINT('',#304);
#101=VERTEX_POINT('',#308);
#102=VERTEX_POINT('',#310);
#103=VERTEX_POINT('',#314);
#104=VERTEX_POINT('',#316);
#105=VERTEX_POINT('',#320);
#106=VERTEX_POINT('',#321);
#107=VERTEX_POINT('',#323);
#108=VERTEX_POINT('',#325);
#109=VERTEX_POINT('',#329);
#110=VERTEX_POINT('',#331);
#111=VERTEX_POINT('',#335);
#112=VERTEX_POINT('',#337);
#113=EDGE_CURVE('',#97,#97,#89,.T.);
#114=EDGE_CURVE('',#97,#98,#57,.T.);
#115=EDGE_CURVE('',#98,#98,#90,.T.);
#116=EDGE_CURVE('',#99,#99,#91,.T.);
#117=EDGE_CURVE('',#99,#100,#58,.T.);
#118=EDGE_CURVE('',#100,#100,#92,.T.);
#119=EDGE_CURVE('',#101,#101,#93,.T.);
#120=EDGE_CURVE('',#101,#102,#59,.T.);
#121=EDGE_CURVE('',#102,#102,#94,.T.);
#122=EDGE_CURVE('',#103,#103,#95,.T.);
#123=EDGE_CURVE('',#103,#104,#60,.T.);
#124=EDGE_CURVE('',#104,#104,#96,.T.);
#125=EDGE_CURVE('',#105,#106,#61,.T.);
#126=EDGE_CURVE('',#106,#107,#62,.T.);
#127=EDGE_CURVE('',#108,#107,#63,.T.);
#128=EDGE_CURVE('',#105,#108,#64,.T.);
#129=EDGE_CURVE('',#109,#105,#65,.T.);
#130=EDGE_CURVE('',#110,#108,#66,.T.);
#131=EDGE_CURVE('',#109,#110,#67,.T.);
#132=EDGE_CURVE('',#111,#109,#68,.T.);
#133=EDGE_CURVE('',#112,#110,#69,.T.);
#134=EDGE_CURVE('',#111,#112,#70,.T.);
#135=EDGE_CURVE('',#106,#111,#71,.T.);
#136=EDGE_CURVE('',#107,#112,#72,.T.);
#137=ORIENTED_EDGE('',*,*,#113,.F.);
#138=ORIENTED_EDGE('',*,*,#114,.T.);
#139=ORIENTED_EDGE('',*,*,#115,.T.);
#140=ORIENTED_EDGE('',*,*,#114,.F.);
#141=ORIENTED_EDGE('',*,*,#116,.F.);
#142=ORIENTED_EDGE('',*,*,#117,.T.);
#143=ORIENTED_EDGE('',*,*,#118,.T.);
#144=ORIENTED_EDGE('',*,*,#117,.F.);
#145=ORIENTED_EDGE('',*,*,#119,.F.);
#146=ORIENTED_EDGE('',*,*,#120,.T.);
#147=ORIENTED_EDGE('',*,*,#121,.T.);
#148=ORIENTED_EDGE('',*,*,#120,.F.);
#149=ORIENTED_EDGE('',*,*,#122,.F.);
#150=ORIENTED_EDGE('',*,*,#123,.T.);
#151=ORIENTED_EDGE('',*,*,#124,.T.);
#152=ORIENTED_EDGE('',*,*,#123,.F.);
#153=ORIENTED_EDGE('',*,*,#125,.T.);
#154=ORIENTED_EDGE('',*,*,#126,.T.);
#155=ORIENTED_EDGE('',*,*,#127,.F.);
#156=ORIENTED_EDGE('',*,*,#128,.F.);
#157=ORIENTED_EDGE('',*,*,#129,.T.);
#158=ORIENTED_EDGE('',*,*,#128,.T.);
#159=ORIENTED_EDGE('',*,*,#130,.F.);
#160=ORIENTED_EDGE('',*,*,#131,.F.);
#161=ORIENTED_EDGE('',*,*,#132,.T.);
#162=ORIENTED_EDGE('',*,*,#131,.T.);
#163=ORIENTED_EDGE('',*,*,#133,.F.);
#164=ORIENTED_EDGE('',*,*,#134,.F.);
#165=ORIENTED_EDGE('',*,*,#135,.T.);
#166=ORIENTED_EDGE('',*,*,#134,.T.);
#167=ORIENTED_EDGE('',*,*,#136,.F.);
#168=ORIENTED_EDGE('',*,*,#126,.F.);
#169=ORIENTED_EDGE('',*,*,#136,.T.);
#170=ORIENTED_EDGE('',*,*,#133,.T.);
#171=ORIENTED_EDGE('',*,*,#130,.T.);
#172=ORIENTED_EDGE('',*,*,#127,.T.);
#173=ORIENTED_EDGE('',*,*,#122,.T.);
#174=ORIENTED_EDGE('',*,*,#119,.T.);
#175=ORIENTED_EDGE('',*,*,#116,.T.);
#176=ORIENTED_EDGE('',*,*,#113,.T.);
#177=ORIENTED_EDGE('',*,*,#135,.F.);
#178=ORIENTED_EDGE('',*,*,#125,.F.);
#179=ORIENTED_EDGE('',*,*,#129,.F.);
#180=ORIENTED_EDGE('',*,*,#132,.F.);
#181=ORIENTED_EDGE('',*,*,#124,.F.);
#182=ORIENTED_EDGE('',*,*,#121,.F.);
#183=ORIENTED_EDGE('',*,*,#118,.F.);
#184=ORIENTED_EDGE('',*,*,#115,.F.);
#185=CYLINDRICAL_SURFACE('',#222,6.5);
#186=CYLINDRICAL_SURFACE('',#225,6.5);
#187=CYLINDRICAL_SURFACE('',#228,6.5);
#188=CYLINDRICAL_SURFACE('',#231,6.5);
#189=ADVANCED_FACE('',(#29),#185,.F.);
#190=ADVANCED_FACE('',(#30),#186,.F.);
#191=ADVANCED_FACE('',(#31),#187,.F.);
#192=ADVANCED_FACE('',(#32),#188,.F.);
#193=ADVANCED_FACE('',(#33),#23,.T.);
#194=ADVANCED_FACE('',(#34),#24,.T.);
#195=ADVANCED_FACE('',(#35),#25,.T.);
#196=ADVANCED_FACE('',(#36),#26,.T.);
#197=ADVANCED_FACE('',(#37,#15,#16,#17,#18),#27,.T.);
#198=ADVANCED_FACE('',(#38,#19,#20,#21,#22),#28,.F.);
#199=CLOSED_SHELL('',(#189,#190,#191,#192,#193,#194,#195,#196,#197,#198));
#200=DERIVED_UNIT_ELEMENT(#203,1.);
#201=DERIVED_UNIT_ELEMENT(#350,-3.);
#202=DIMENSIONAL_EXPONENTS(1.,0.,0.,0.,0.,0.,0.);
#203=(
CONVERSION_BASED_UNIT('gram',#205)
MASS_UNIT()
NAMED_UNIT(#202)
);
#204=(
MASS_UNIT()
NAMED_UNIT(*)
SI_UNIT(.KILO.,.GRAM.)
);
#205=MASS_MEASURE_WITH_UNIT(MASS_MEASURE(0.001),#204);
#206=DERIVED_UNIT((#200,#201));
#207=MEASURE_REPRESENTATION_ITEM('density measure',
POSITIVE_RATIO_MEASURE(8.),#206);
#208=PROPERTY_DEFINITION_REPRESENTATION(#213,#210);
#209=PROPERTY_DEFINITION_REPRESENTATION(#214,#211);
#210=REPRESENTATION('material name',(#212),#347);
#211=REPRESENTATION('density',(#207),#347);
#212=DESCRIPTIVE_REPRESENTATION_ITEM('Edelstahl AISI 304',
'Edelstahl AISI 304');
#213=PROPERTY_DEFINITION('material property','material name',#357);
#214=PROPERTY_DEFINITION('material property','density of part',#357);
#215=DATE_TIME_ROLE('creation_date');
#216=APPLIED_DATE_AND_TIME_ASSIGNMENT(#217,#215,(#357));
#217=DATE_AND_TIME(#218,#219);
#218=CALENDAR_DATE(2021,21,4);
#219=LOCAL_TIME(0,0,0.,#220);
#220=COORDINATED_UNIVERSAL_TIME_OFFSET(0,0,.BEHIND.);
#221=AXIS2_PLACEMENT_3D('placement',#294,#240,#241);
#222=AXIS2_PLACEMENT_3D('',#295,#242,#243);
#223=AXIS2_PLACEMENT_3D('',#297,#244,#245);
#224=AXIS2_PLACEMENT_3D('',#300,#247,#248);
#225=AXIS2_PLACEMENT_3D('',#301,#249,#250);
#226=AXIS2_PLACEMENT_3D('',#303,#251,#252);
#227=AXIS2_PLACEMENT_3D('',#306,#254,#255);
#228=AXIS2_PLACEMENT_3D('',#307,#256,#257);
#229=AXIS2_PLACEMENT_3D('',#309,#258,#259);
#230=AXIS2_PLACEMENT_3D('',#312,#261,#262);
#231=AXIS2_PLACEMENT_3D('',#313,#263,#264);
#232=AXIS2_PLACEMENT_3D('',#315,#265,#266);
#233=AXIS2_PLACEMENT_3D('',#318,#268,#269);
#234=AXIS2_PLACEMENT_3D('',#319,#270,#271);
#235=AXIS2_PLACEMENT_3D('',#328,#276,#277);
#236=AXIS2_PLACEMENT_3D('',#334,#281,#282);
#237=AXIS2_PLACEMENT_3D('',#340,#286,#287);
#238=AXIS2_PLACEMENT_3D('',#343,#290,#291);
#239=AXIS2_PLACEMENT_3D('',#344,#292,#293);
#240=DIRECTION('axis',(0.,0.,1.));
#241=DIRECTION('refdir',(1.,0.,0.));
#242=DIRECTION('center_axis',(0.,1.,0.));
#243=DIRECTION('ref_axis',(1.,0.,0.));
#244=DIRECTION('center_axis',(0.,-1.,0.));
#245=DIRECTION('ref_axis',(1.,0.,0.));
#246=DIRECTION('',(0.,-1.,0.));
#247=DIRECTION('center_axis',(0.,-1.,0.));
#248=DIRECTION('ref_axis',(1.,0.,0.));
#249=DIRECTION('center_axis',(0.,1.,0.));
#250=DIRECTION('ref_axis',(1.,0.,0.));
#251=DIRECTION('center_axis',(0.,-1.,0.));
#252=DIRECTION('ref_axis',(1.,0.,0.));
#253=DIRECTION('',(0.,-1.,0.));
#254=DIRECTION('center_axis',(0.,-1.,0.));
#255=DIRECTION('ref_axis',(1.,0.,0.));
#256=DIRECTION('center_axis',(0.,1.,0.));
#257=DIRECTION('ref_axis',(1.,0.,0.));
#258=DIRECTION('center_axis',(0.,-1.,0.));
#259=DIRECTION('ref_axis',(1.,0.,0.));
#260=DIRECTION('',(0.,-1.,0.));
#261=DIRECTION('center_axis',(0.,-1.,0.));
#262=DIRECTION('ref_axis',(1.,0.,0.));
#263=DIRECTION('center_axis',(0.,1.,0.));
#264=DIRECTION('ref_axis',(1.,0.,0.));
#265=DIRECTION('center_axis',(0.,-1.,0.));
#266=DIRECTION('ref_axis',(1.,0.,0.));
#267=DIRECTION('',(0.,-1.,0.));
#268=DIRECTION('center_axis',(0.,-1.,0.));
#269=DIRECTION('ref_axis',(1.,0.,0.));
#270=DIRECTION('center_axis',(1.,0.,1.11068528206051E-18));
#271=DIRECTION('ref_axis',(1.11068528206051E-18,0.,-1.));
#272=DIRECTION('',(1.11068528206051E-18,0.,-1.));
#273=DIRECTION('',(0.,1.,0.));
#274=DIRECTION('',(1.11068528206051E-18,0.,-1.));
#275=DIRECTION('',(0.,1.,0.));
#276=DIRECTION('center_axis',(-8.78810996802744E-19,0.,1.));
#277=DIRECTION('ref_axis',(1.,0.,8.78810996802744E-19));
#278=DIRECTION('',(1.,0.,8.78810996802744E-19));
#279=DIRECTION('',(1.,0.,8.78810996802744E-19));
#280=DIRECTION('',(0.,1.,0.));
#281=DIRECTION('center_axis',(-1.,0.,0.));
#282=DIRECTION('ref_axis',(0.,0.,1.));
#283=DIRECTION('',(0.,0.,1.));
#284=DIRECTION('',(0.,0.,1.));
#285=DIRECTION('',(0.,1.,0.));
#286=DIRECTION('center_axis',(-1.48029736616688E-16,0.,-1.));
#287=DIRECTION('ref_axis',(-1.,0.,1.48029736616688E-16));
#288=DIRECTION('',(-1.,0.,1.48029736616688E-16));
#289=DIRECTION('',(-1.,0.,1.48029736616688E-16));
#290=DIRECTION('center_axis',(0.,1.,0.));
#291=DIRECTION('ref_axis',(0.,0.,1.));
#292=DIRECTION('center_axis',(0.,1.,0.));
#293=DIRECTION('ref_axis',(0.,0.,1.));
#294=CARTESIAN_POINT('',(0.,0.,0.));
#295=CARTESIAN_POINT('Origin',(-20.,0.,-20.));
#296=CARTESIAN_POINT('',(-26.5,6.,-20.));
#297=CARTESIAN_POINT('Origin',(-20.,6.,-20.));
#298=CARTESIAN_POINT('',(-26.5,0.,-20.));
#299=CARTESIAN_POINT('',(-26.5,0.,-20.));
#300=CARTESIAN_POINT('Origin',(-20.,0.,-20.));
#301=CARTESIAN_POINT('Origin',(-100.,0.,-20.));
#302=CARTESIAN_POINT('',(-106.5,6.,-20.));
#303=CARTESIAN_POINT('Origin',(-100.,6.,-20.));
#304=CARTESIAN_POINT('',(-106.5,0.,-20.));
#305=CARTESIAN_POINT('',(-106.5,0.,-20.));
#306=CARTESIAN_POINT('Origin',(-100.,0.,-20.));
#307=CARTESIAN_POINT('Origin',(-100.,0.,-100.));
#308=CARTESIAN_POINT('',(-106.5,6.,-100.));
#309=CARTESIAN_POINT('Origin',(-100.,6.,-100.));
#310=CARTESIAN_POINT('',(-106.5,0.,-100.));
#311=CARTESIAN_POINT('',(-106.5,0.,-100.));
#312=CARTESIAN_POINT('Origin',(-100.,0.,-100.));
#313=CARTESIAN_POINT('Origin',(-20.,0.,-100.));
#314=CARTESIAN_POINT('',(-26.5,6.,-100.));
#315=CARTESIAN_POINT('Origin',(-20.,6.,-100.));
#316=CARTESIAN_POINT('',(-26.5,0.,-100.));
#317=CARTESIAN_POINT('',(-26.5,0.,-100.));
#318=CARTESIAN_POINT('Origin',(-20.,0.,-100.));
#319=CARTESIAN_POINT('Origin',(0.,0.,0.));
#320=CARTESIAN_POINT('',(0.,0.,0.));
#321=CARTESIAN_POINT('',(0.,0.,-120.));
#322=CARTESIAN_POINT('',(0.,0.,0.));
#323=CARTESIAN_POINT('',(0.,6.,-120.));
#324=CARTESIAN_POINT('',(0.,0.,-120.));
#325=CARTESIAN_POINT('',(0.,6.,0.));
#326=CARTESIAN_POINT('',(0.,6.,0.));
#327=CARTESIAN_POINT('',(0.,0.,0.));
#328=CARTESIAN_POINT('Origin',(-120.,0.,-1.05457319616329E-16));
#329=CARTESIAN_POINT('',(-120.,0.,0.));
#330=CARTESIAN_POINT('',(-120.,0.,-1.05457319616329E-16));
#331=CARTESIAN_POINT('',(-120.,6.,0.));
#332=CARTESIAN_POINT('',(-120.,6.,-1.05457319616329E-16));
#333=CARTESIAN_POINT('',(-120.,0.,0.));
#334=CARTESIAN_POINT('Origin',(-120.,0.,-120.));
#335=CARTESIAN_POINT('',(-120.,0.,-120.));
#336=CARTESIAN_POINT('',(-120.,0.,-120.));
#337=CARTESIAN_POINT('',(-120.,6.,-120.));
#338=CARTESIAN_POINT('',(-120.,6.,-120.));
#339=CARTESIAN_POINT('',(-120.,0.,-120.));
#340=CARTESIAN_POINT('Origin',(0.,0.,-120.));
#341=CARTESIAN_POINT('',(0.,0.,-120.));
#342=CARTESIAN_POINT('',(0.,6.,-120.));
#343=CARTESIAN_POINT('Origin',(-60.,6.,-60.));
#344=CARTESIAN_POINT('Origin',(-60.,0.,-60.));
#345=UNCERTAINTY_MEASURE_WITH_UNIT(LENGTH_MEASURE(0.01),#349,
'DISTANCE_ACCURACY_VALUE',
'Maximum model space distance between geometric entities at asserted c
onnectivities');
#346=UNCERTAINTY_MEASURE_WITH_UNIT(LENGTH_MEASURE(0.01),#349,
'DISTANCE_ACCURACY_VALUE',
'Maximum model space distance between geometric entities at asserted c
onnectivities');
#347=(
GEOMETRIC_REPRESENTATION_CONTEXT(3)
GLOBAL_UNCERTAINTY_ASSIGNED_CONTEXT((#345))
GLOBAL_UNIT_ASSIGNED_CONTEXT((#349,#351,#352))
REPRESENTATION_CONTEXT('','3D')
);
#348=(
GEOMETRIC_REPRESENTATION_CONTEXT(3)
GLOBAL_UNCERTAINTY_ASSIGNED_CONTEXT((#346))
GLOBAL_UNIT_ASSIGNED_CONTEXT((#349,#351,#352))
REPRESENTATION_CONTEXT('','3D')
);
#349=(
LENGTH_UNIT()
NAMED_UNIT(*)
SI_UNIT(.MILLI.,.METRE.)
);
#350=(
LENGTH_UNIT()
NAMED_UNIT(*)
SI_UNIT(.CENTI.,.METRE.)
);
#351=(
NAMED_UNIT(*)
PLANE_ANGLE_UNIT()
SI_UNIT($,.RADIAN.)
);
#352=(
NAMED_UNIT(*)
SI_UNIT($,.STERADIAN.)
SOLID_ANGLE_UNIT()
);
#353=SHAPE_DEFINITION_REPRESENTATION(#354,#355);
#354=PRODUCT_DEFINITION_SHAPE('',$,#357);
#355=SHAPE_REPRESENTATION('',(#221),#347);
#356=PRODUCT_DEFINITION_CONTEXT('part definition',#361,'design');
#357=PRODUCT_DEFINITION('41111','41111',#358,#356);
#358=PRODUCT_DEFINITION_FORMATION('',$,#363);
#359=PRODUCT_RELATED_PRODUCT_CATEGORY('41111','41111',(#363));
#360=APPLICATION_PROTOCOL_DEFINITION('international standard',
'automotive_design',2009,#361);
#361=APPLICATION_CONTEXT(
'Core Data for Automotive Mechanical Design Process');
#362=PRODUCT_CONTEXT('part definition',#361,'mechanical');
#363=PRODUCT('41111','41111',$,(#362));
#364=PRESENTATION_STYLE_ASSIGNMENT((#365));
#365=SURFACE_STYLE_USAGE(.BOTH.,#368);
#366=SURFACE_STYLE_RENDERING_WITH_PROPERTIES($,#372,(#367));
#367=SURFACE_STYLE_TRANSPARENT(0.);
#368=SURFACE_SIDE_STYLE('',(#369,#366));
#369=SURFACE_STYLE_FILL_AREA(#370);
#370=FILL_AREA_STYLE('',(#371));
#371=FILL_AREA_STYLE_COLOUR('',#372);
#372=COLOUR_RGB('',0.956862745098039,0.956862745098039,0.956862745098039);
ENDSEC;
END-ISO-10303-21;
