ISO-10303-21;
HEADER;
/* Generated by software containing ST-Developer
 * from STEP Tools, Inc. (www.steptools.com) 
 */

FILE_DESCRIPTION(
/* description */ (''),
/* implementation_level */ '2;1');

FILE_NAME(
/* name */ 
'C:\\Users\\O.Boryczka\\Desktop\\Korrigierte Zeichnungen\\H\X\FClsen V
2A\\41128.ipt.step',
/* time_stamp */ '2022-07-18T12:55:07+02:00',
/* author */ ('Abt. Technik'),
/* organization */ (''),
/* preprocessor_version */ 'ST-DEVELOPER v18.1',
/* originating_system */ 'Autodesk Inventor 2022',
/* authorisation */ '');

FILE_SCHEMA (('AUTOMOTIVE_DESIGN { 1 0 10303 214 3 1 1 }'));
ENDSEC;

DATA;
#10=MECHANICAL_DESIGN_GEOMETRIC_PRESENTATION_REPRESENTATION('',(#13),#210);
#11=SHAPE_REPRESENTATION_RELATIONSHIP('SRR','None',#217,#12);
#12=ADVANCED_BREP_SHAPE_REPRESENTATION('',(#14),#209);
#13=STYLED_ITEM('',(#226),#14);
#14=MANIFOLD_SOLID_BREP('Volumenk\X\F6rper1',#75);
#15=PLANE('',#103);
#16=CIRCLE('',#100,9.);
#17=CIRCLE('',#102,10.);
#18=LINE('',#200,#20);
#19=LINE('',#204,#21);
#20=VECTOR('',#110,9.);
#21=VECTOR('',#115,10.);
#22=FACE_BOUND('',#29,.T.);
#23=FACE_BOUND('',#33,.T.);
#24=FACE_OUTER_BOUND('',#28,.T.);
#25=FACE_OUTER_BOUND('',#30,.T.);
#26=FACE_OUTER_BOUND('',#31,.T.);
#27=FACE_OUTER_BOUND('',#32,.T.);
#28=EDGE_LOOP('',(#52,#53));
#29=EDGE_LOOP('',(#54,#55));
#30=EDGE_LOOP('',(#56,#57,#58,#59,#60));
#31=EDGE_LOOP('',(#61,#62,#63,#64,#65));
#32=EDGE_LOOP('',(#66));
#33=EDGE_LOOP('',(#67));
#34=B_SPLINE_CURVE_WITH_KNOTS('',3,(#124,#125,#126,#127,#128,#129,#130,
#131,#132,#133,#134,#135,#136,#137,#138,#139,#140,#141,#142,#143,#144,#145,
#146,#147,#148,#149),.UNSPECIFIED.,.F.,.F.,(4,2,2,2,2,2,2,2,2,2,2,2,4),
(0.,0.383831944197688,0.767663888395376,1.15069232052775,1.53372075266012,
1.91674918479249,2.29977761692486,2.68360956112255,3.06744150532024,3.45127344951793,
3.83510539371562,4.21813382584799,4.60116225798036),.UNSPECIFIED.);
#35=B_SPLINE_CURVE_WITH_KNOTS('',3,(#150,#151,#152,#153,#154,#155,#156,
#157,#158,#159),.UNSPECIFIED.,.F.,.F.,(4,2,2,2,4),(4.60116225798036,4.98419069011273,
5.36721912224511,5.75105106644279,6.13488301064048),.UNSPECIFIED.);
#36=B_SPLINE_CURVE_WITH_KNOTS('',3,(#162,#163,#164,#165,#166,#167,#168,
#169,#170,#171,#172,#173,#174,#175,#176,#177,#178,#179,#180,#181,#182,#183,
#184,#185,#186,#187),.UNSPECIFIED.,.F.,.F.,(4,2,2,2,2,2,2,2,2,2,2,2,4),
(0.,0.344040257747113,0.688080515494226,1.03166957790841,1.37525864032259,
1.71884770273678,2.06243676515096,2.40647702289807,2.75051728064519,3.0945575383923,
3.43859779613941,3.7821868585536,4.12577592096778),.UNSPECIFIED.);
#37=B_SPLINE_CURVE_WITH_KNOTS('',3,(#188,#189,#190,#191,#192,#193,#194,
#195,#196,#197),.UNSPECIFIED.,.F.,.F.,(4,2,2,2,4),(4.12577592096778,4.46936498338196,
4.81295404579615,5.15699430354326,5.50103456129037),.UNSPECIFIED.);
#38=VERTEX_POINT('',#122);
#39=VERTEX_POINT('',#123);
#40=VERTEX_POINT('',#160);
#41=VERTEX_POINT('',#161);
#42=VERTEX_POINT('',#199);
#43=VERTEX_POINT('',#203);
#44=EDGE_CURVE('',#38,#39,#34,.T.);
#45=EDGE_CURVE('',#39,#38,#35,.T.);
#46=EDGE_CURVE('',#40,#41,#36,.T.);
#47=EDGE_CURVE('',#41,#40,#37,.T.);
#48=EDGE_CURVE('',#41,#42,#18,.T.);
#49=EDGE_CURVE('',#42,#42,#16,.T.);
#50=EDGE_CURVE('',#39,#43,#19,.T.);
#51=EDGE_CURVE('',#43,#43,#17,.T.);
#52=ORIENTED_EDGE('',*,*,#44,.F.);
#53=ORIENTED_EDGE('',*,*,#45,.F.);
#54=ORIENTED_EDGE('',*,*,#46,.F.);
#55=ORIENTED_EDGE('',*,*,#47,.F.);
#56=ORIENTED_EDGE('',*,*,#46,.T.);
#57=ORIENTED_EDGE('',*,*,#48,.T.);
#58=ORIENTED_EDGE('',*,*,#49,.T.);
#59=ORIENTED_EDGE('',*,*,#48,.F.);
#60=ORIENTED_EDGE('',*,*,#47,.T.);
#61=ORIENTED_EDGE('',*,*,#44,.T.);
#62=ORIENTED_EDGE('',*,*,#50,.T.);
#63=ORIENTED_EDGE('',*,*,#51,.T.);
#64=ORIENTED_EDGE('',*,*,#50,.F.);
#65=ORIENTED_EDGE('',*,*,#45,.T.);
#66=ORIENTED_EDGE('',*,*,#51,.F.);
#67=ORIENTED_EDGE('',*,*,#49,.F.);
#68=CYLINDRICAL_SURFACE('',#98,21.2);
#69=CYLINDRICAL_SURFACE('',#99,9.);
#70=CYLINDRICAL_SURFACE('',#101,10.);
#71=ADVANCED_FACE('',(#24,#22),#68,.F.);
#72=ADVANCED_FACE('',(#25),#69,.F.);
#73=ADVANCED_FACE('',(#26),#70,.T.);
#74=ADVANCED_FACE('',(#27,#23),#15,.F.);
#75=CLOSED_SHELL('',(#71,#72,#73,#74));
#76=DERIVED_UNIT_ELEMENT(#79,1.);
#77=DERIVED_UNIT_ELEMENT(#212,-3.);
#78=DIMENSIONAL_EXPONENTS(1.,0.,0.,0.,0.,0.,0.);
#79=(
CONVERSION_BASED_UNIT('gram',#81)
MASS_UNIT()
NAMED_UNIT(#78)
);
#80=(
MASS_UNIT()
NAMED_UNIT(*)
SI_UNIT(.KILO.,.GRAM.)
);
#81=MASS_MEASURE_WITH_UNIT(MASS_MEASURE(0.001),#80);
#82=DERIVED_UNIT((#76,#77));
#83=MEASURE_REPRESENTATION_ITEM('density measure',
POSITIVE_RATIO_MEASURE(8.),#82);
#84=PROPERTY_DEFINITION_REPRESENTATION(#89,#86);
#85=PROPERTY_DEFINITION_REPRESENTATION(#90,#87);
#86=REPRESENTATION('material name',(#88),#209);
#87=REPRESENTATION('density',(#83),#209);
#88=DESCRIPTIVE_REPRESENTATION_ITEM('Edelstahl AISI 304',
'Edelstahl AISI 304');
#89=PROPERTY_DEFINITION('material property','material name',#219);
#90=PROPERTY_DEFINITION('material property','density of part',#219);
#91=DATE_TIME_ROLE('creation_date');
#92=APPLIED_DATE_AND_TIME_ASSIGNMENT(#93,#91,(#219));
#93=DATE_AND_TIME(#94,#95);
#94=CALENDAR_DATE(2021,10,6);
#95=LOCAL_TIME(0,0,0.,#96);
#96=COORDINATED_UNIVERSAL_TIME_OFFSET(0,0,.BEHIND.);
#97=AXIS2_PLACEMENT_3D('placement',#120,#104,#105);
#98=AXIS2_PLACEMENT_3D('',#121,#106,#107);
#99=AXIS2_PLACEMENT_3D('',#198,#108,#109);
#100=AXIS2_PLACEMENT_3D('',#201,#111,#112);
#101=AXIS2_PLACEMENT_3D('',#202,#113,#114);
#102=AXIS2_PLACEMENT_3D('',#205,#116,#117);
#103=AXIS2_PLACEMENT_3D('',#206,#118,#119);
#104=DIRECTION('axis',(0.,0.,1.));
#105=DIRECTION('refdir',(1.,0.,0.));
#106=DIRECTION('center_axis',(1.,0.,0.));
#107=DIRECTION('ref_axis',(0.,-1.,1.22464679914735E-16));
#108=DIRECTION('center_axis',(0.,1.,0.));
#109=DIRECTION('ref_axis',(1.,0.,0.));
#110=DIRECTION('',(0.,-1.,0.));
#111=DIRECTION('center_axis',(0.,-1.,0.));
#112=DIRECTION('ref_axis',(1.,0.,0.));
#113=DIRECTION('center_axis',(0.,1.,0.));
#114=DIRECTION('ref_axis',(-1.,0.,0.));
#115=DIRECTION('',(0.,-1.,0.));
#116=DIRECTION('center_axis',(0.,1.,0.));
#117=DIRECTION('ref_axis',(-1.,0.,0.));
#118=DIRECTION('center_axis',(0.,1.,0.));
#119=DIRECTION('ref_axis',(0.,0.,1.));
#120=CARTESIAN_POINT('',(0.,0.,0.));
#121=CARTESIAN_POINT('Origin',(0.,41.2,0.));
#122=CARTESIAN_POINT('',(-8.32667268468867E-16,22.5066856871233,10.));
#123=CARTESIAN_POINT('',(10.,20.,-1.16743491188625E-15));
#124=CARTESIAN_POINT('Ctrl Pts',(-8.32667268468867E-16,22.5066856871233,
10.));
#125=CARTESIAN_POINT('Ctrl Pts',(-1.27943981399229,22.5066856871233,10.));
#126=CARTESIAN_POINT('Ctrl Pts',(-2.6269154299164,22.3613584734299,9.74013684639862));
#127=CARTESIAN_POINT('Ctrl Pts',(-5.08277152211493,21.8653619595897,8.71415065276743));
#128=CARTESIAN_POINT('Ctrl Pts',(-6.19341552890912,21.5245192800271,7.94872009482184));
#129=CARTESIAN_POINT('Ctrl Pts',(-7.94688282148081,20.904140556238,6.19525280225014));
#130=CARTESIAN_POINT('Ctrl Pts',(-8.71367617684491,20.58068616895,5.08396485486439));
#131=CARTESIAN_POINT('Ctrl Pts',(-9.74074587411995,20.1260806482524,2.62540001942094));
#132=CARTESIAN_POINT('Ctrl Pts',(-10.,20.,1.27676144044124));
#133=CARTESIAN_POINT('Ctrl Pts',(-10.,20.,-1.27676144044124));
#134=CARTESIAN_POINT('Ctrl Pts',(-9.74074587411995,20.1260806482524,-2.62540001942094));
#135=CARTESIAN_POINT('Ctrl Pts',(-8.71367617684491,20.58068616895,-5.0839648548644));
#136=CARTESIAN_POINT('Ctrl Pts',(-7.94688282148081,20.904140556238,-6.19525280225014));
#137=CARTESIAN_POINT('Ctrl Pts',(-6.19341552890912,21.5245192800271,-7.94872009482184));
#138=CARTESIAN_POINT('Ctrl Pts',(-5.08277152211493,21.8653619595897,-8.71415065276743));
#139=CARTESIAN_POINT('Ctrl Pts',(-2.6269154299164,22.3613584734299,-9.74013684639862));
#140=CARTESIAN_POINT('Ctrl Pts',(-1.27943981399229,22.5066856871233,-10.));
#141=CARTESIAN_POINT('Ctrl Pts',(1.27943981399229,22.5066856871233,-10.));
#142=CARTESIAN_POINT('Ctrl Pts',(2.6269154299164,22.3613584734299,-9.74013684639862));
#143=CARTESIAN_POINT('Ctrl Pts',(5.08277152211493,21.8653619595897,-8.71415065276743));
#144=CARTESIAN_POINT('Ctrl Pts',(6.19341552890912,21.5245192800271,-7.94872009482184));
#145=CARTESIAN_POINT('Ctrl Pts',(7.94688282148081,20.904140556238,-6.19525280225014));
#146=CARTESIAN_POINT('Ctrl Pts',(8.71367617684491,20.58068616895,-5.08396485486439));
#147=CARTESIAN_POINT('Ctrl Pts',(9.74074587411995,20.1260806482524,-2.62540001942093));
#148=CARTESIAN_POINT('Ctrl Pts',(10.,20.,-1.27676144044124));
#149=CARTESIAN_POINT('Ctrl Pts',(10.,20.,-8.32667268468867E-16));
#150=CARTESIAN_POINT('Ctrl Pts',(10.,20.,-1.11022302462516E-15));
#151=CARTESIAN_POINT('Ctrl Pts',(10.,20.,1.27676144044124));
#152=CARTESIAN_POINT('Ctrl Pts',(9.74074587411995,20.1260806482524,2.62540001942093));
#153=CARTESIAN_POINT('Ctrl Pts',(8.71367617684492,20.58068616895,5.08396485486439));
#154=CARTESIAN_POINT('Ctrl Pts',(7.94688282148082,20.904140556238,6.19525280225014));
#155=CARTESIAN_POINT('Ctrl Pts',(6.19341552890912,21.5245192800271,7.94872009482184));
#156=CARTESIAN_POINT('Ctrl Pts',(5.08277152211493,21.8653619595897,8.71415065276743));
#157=CARTESIAN_POINT('Ctrl Pts',(2.6269154299164,22.3613584734299,9.74013684639862));
#158=CARTESIAN_POINT('Ctrl Pts',(1.27943981399229,22.5066856871233,10.));
#159=CARTESIAN_POINT('Ctrl Pts',(8.32667268468867E-16,22.5066856871233,
10.));
#160=CARTESIAN_POINT('',(8.32667268468867E-16,22.0052090399505,9.));
#161=CARTESIAN_POINT('',(-9.,20.,-4.02045269626931E-18));
#162=CARTESIAN_POINT('Ctrl Pts',(0.,22.0052090399505,9.));
#163=CARTESIAN_POINT('Ctrl Pts',(1.14680085915704,22.0052090399505,9.));
#164=CARTESIAN_POINT('Ctrl Pts',(2.35825136299484,21.8915384600195,8.76782056821923));
#165=CARTESIAN_POINT('Ctrl Pts',(4.57028444734942,21.4986600988618,7.84528845823565));
#166=CARTESIAN_POINT('Ctrl Pts',(5.57241165463187,21.2268361891492,7.15551040672598));
#167=CARTESIAN_POINT('Ctrl Pts',(7.15447232069909,20.7289605828153,5.57344974065876));
#168=CARTESIAN_POINT('Ctrl Pts',(7.84503230793655,20.4682588225719,4.5709386549994));
#169=CARTESIAN_POINT('Ctrl Pts',(8.76817001826123,20.1016265286349,2.35737343878058));
#170=CARTESIAN_POINT('Ctrl Pts',(9.,20.,1.14529687471395));
#171=CARTESIAN_POINT('Ctrl Pts',(9.,20.,-1.14529687471395));
#172=CARTESIAN_POINT('Ctrl Pts',(8.76817001826123,20.1016265286349,-2.35737343878058));
#173=CARTESIAN_POINT('Ctrl Pts',(7.84503230793655,20.4682588225719,-4.5709386549994));
#174=CARTESIAN_POINT('Ctrl Pts',(7.15447232069909,20.7289605828153,-5.57344974065876));
#175=CARTESIAN_POINT('Ctrl Pts',(5.57241165463187,21.2268361891492,-7.15551040672598));
#176=CARTESIAN_POINT('Ctrl Pts',(4.57028444734943,21.4986600988618,-7.84528845823565));
#177=CARTESIAN_POINT('Ctrl Pts',(2.35825136299484,21.8915384600195,-8.76782056821923));
#178=CARTESIAN_POINT('Ctrl Pts',(1.14680085915704,22.0052090399505,-9.));
#179=CARTESIAN_POINT('Ctrl Pts',(-1.14680085915704,22.0052090399505,-9.));
#180=CARTESIAN_POINT('Ctrl Pts',(-2.35825136299484,21.8915384600195,-8.76782056821923));
#181=CARTESIAN_POINT('Ctrl Pts',(-4.57028444734942,21.4986600988618,-7.84528845823565));
#182=CARTESIAN_POINT('Ctrl Pts',(-5.57241165463187,21.2268361891492,-7.15551040672598));
#183=CARTESIAN_POINT('Ctrl Pts',(-7.15447232069909,20.7289605828153,-5.57344974065876));
#184=CARTESIAN_POINT('Ctrl Pts',(-7.84503230793655,20.4682588225719,-4.5709386549994));
#185=CARTESIAN_POINT('Ctrl Pts',(-8.76817001826123,20.1016265286349,-2.35737343878058));
#186=CARTESIAN_POINT('Ctrl Pts',(-9.,20.,-1.14529687471395));
#187=CARTESIAN_POINT('Ctrl Pts',(-9.,20.,-5.55111512312578E-16));
#188=CARTESIAN_POINT('Ctrl Pts',(-9.,20.,-1.11022302462516E-15));
#189=CARTESIAN_POINT('Ctrl Pts',(-9.,20.,1.14529687471394));
#190=CARTESIAN_POINT('Ctrl Pts',(-8.76817001826123,20.1016265286349,2.35737343878058));
#191=CARTESIAN_POINT('Ctrl Pts',(-7.84503230793655,20.4682588225719,4.5709386549994));
#192=CARTESIAN_POINT('Ctrl Pts',(-7.15447232069909,20.7289605828153,5.57344974065876));
#193=CARTESIAN_POINT('Ctrl Pts',(-5.57241165463187,21.2268361891492,7.15551040672598));
#194=CARTESIAN_POINT('Ctrl Pts',(-4.57028444734942,21.4986600988618,7.84528845823565));
#195=CARTESIAN_POINT('Ctrl Pts',(-2.35825136299484,21.8915384600195,8.76782056821923));
#196=CARTESIAN_POINT('Ctrl Pts',(-1.14680085915704,22.0052090399504,9.));
#197=CARTESIAN_POINT('Ctrl Pts',(2.77555756156289E-16,22.0052090399504,
9.));
#198=CARTESIAN_POINT('Origin',(0.,0.,0.));
#199=CARTESIAN_POINT('',(-9.,0.,1.10218211923262E-15));
#200=CARTESIAN_POINT('',(-9.,0.,1.10218211923262E-15));
#201=CARTESIAN_POINT('Origin',(0.,0.,0.));
#202=CARTESIAN_POINT('Origin',(0.,0.,0.));
#203=CARTESIAN_POINT('',(10.,0.,-1.22464679914735E-15));
#204=CARTESIAN_POINT('',(10.,0.,-1.22464679914735E-15));
#205=CARTESIAN_POINT('Origin',(0.,0.,0.));
#206=CARTESIAN_POINT('Origin',(0.,0.,0.));
#207=UNCERTAINTY_MEASURE_WITH_UNIT(LENGTH_MEASURE(0.01),#211,
'DISTANCE_ACCURACY_VALUE',
'Maximum model space distance between geometric entities at asserted c
onnectivities');
#208=UNCERTAINTY_MEASURE_WITH_UNIT(LENGTH_MEASURE(0.01),#211,
'DISTANCE_ACCURACY_VALUE',
'Maximum model space distance between geometric entities at asserted c
onnectivities');
#209=(
GEOMETRIC_REPRESENTATION_CONTEXT(3)
GLOBAL_UNCERTAINTY_ASSIGNED_CONTEXT((#207))
GLOBAL_UNIT_ASSIGNED_CONTEXT((#211,#213,#214))
REPRESENTATION_CONTEXT('','3D')
);
#210=(
GEOMETRIC_REPRESENTATION_CONTEXT(3)
GLOBAL_UNCERTAINTY_ASSIGNED_CONTEXT((#208))
GLOBAL_UNIT_ASSIGNED_CONTEXT((#211,#213,#214))
REPRESENTATION_CONTEXT('','3D')
);
#211=(
LENGTH_UNIT()
NAMED_UNIT(*)
SI_UNIT(.MILLI.,.METRE.)
);
#212=(
LENGTH_UNIT()
NAMED_UNIT(*)
SI_UNIT(.CENTI.,.METRE.)
);
#213=(
NAMED_UNIT(*)
PLANE_ANGLE_UNIT()
SI_UNIT($,.RADIAN.)
);
#214=(
NAMED_UNIT(*)
SI_UNIT($,.STERADIAN.)
SOLID_ANGLE_UNIT()
);
#215=SHAPE_DEFINITION_REPRESENTATION(#216,#217);
#216=PRODUCT_DEFINITION_SHAPE('',$,#219);
#217=SHAPE_REPRESENTATION('',(#97),#209);
#218=PRODUCT_DEFINITION_CONTEXT('part definition',#223,'design');
#219=PRODUCT_DEFINITION('41128','41128',#220,#218);
#220=PRODUCT_DEFINITION_FORMATION('',$,#225);
#221=PRODUCT_RELATED_PRODUCT_CATEGORY('41128','41128',(#225));
#222=APPLICATION_PROTOCOL_DEFINITION('international standard',
'automotive_design',2009,#223);
#223=APPLICATION_CONTEXT(
'Core Data for Automotive Mechanical Design Process');
#224=PRODUCT_CONTEXT('part definition',#223,'mechanical');
#225=PRODUCT('41128','41128',$,(#224));
#226=PRESENTATION_STYLE_ASSIGNMENT((#227));
#227=SURFACE_STYLE_USAGE(.BOTH.,#230);
#228=SURFACE_STYLE_RENDERING_WITH_PROPERTIES($,#234,(#229));
#229=SURFACE_STYLE_TRANSPARENT(0.);
#230=SURFACE_SIDE_STYLE('',(#231,#228));
#231=SURFACE_STYLE_FILL_AREA(#232);
#232=FILL_AREA_STYLE('',(#233));
#233=FILL_AREA_STYLE_COLOUR('',#234);
#234=COLOUR_RGB('',0.956862745098039,0.956862745098039,0.956862745098039);
ENDSEC;
END-ISO-10303-21;
