ISO-10303-21;
HEADER;
/* Generated by software containing ST-Developer
 * from STEP Tools, Inc. (www.steptools.com) 
 */

FILE_DESCRIPTION(
/* description */ (''),
/* implementation_level */ '2;1');

FILE_NAME(
/* name */ 
'C:\\Users\\O.Boryczka\\Desktop\\Korrigierte Zeichnungen\\Einlegeplatt
e V2A\\41130.ipt.step',
/* time_stamp */ '2022-07-18T12:53:42+02:00',
/* author */ ('Abt. Technik'),
/* organization */ (''),
/* preprocessor_version */ 'ST-DEVELOPER v18.1',
/* originating_system */ 'Autodesk Inventor 2022',
/* authorisation */ '');

FILE_SCHEMA (('AUTOMOTIVE_DESIGN { 1 0 10303 214 3 1 1 }'));
ENDSEC;

DATA;
#10=MECHANICAL_DESIGN_GEOMETRIC_PRESENTATION_REPRESENTATION('',(#13),#428);
#11=SHAPE_REPRESENTATION_RELATIONSHIP('SRR','None',#435,#12);
#12=ADVANCED_BREP_SHAPE_REPRESENTATION('',(#14),#427);
#13=STYLED_ITEM('',(#444),#14);
#14=MANIFOLD_SOLID_BREP('Volumenk\X\F6rper1',#169);
#15=FACE_BOUND('',#39,.T.);
#16=FACE_BOUND('',#40,.T.);
#17=FACE_BOUND('',#43,.T.);
#18=FACE_BOUND('',#44,.T.);
#19=CIRCLE('',#195,21.2);
#20=CIRCLE('',#196,21.2);
#21=CIRCLE('',#198,21.2);
#22=CIRCLE('',#201,21.2);
#23=PLANE('',#194);
#24=PLANE('',#199);
#25=PLANE('',#202);
#26=PLANE('',#203);
#27=FACE_OUTER_BOUND('',#35,.T.);
#28=FACE_OUTER_BOUND('',#36,.T.);
#29=FACE_OUTER_BOUND('',#37,.T.);
#30=FACE_OUTER_BOUND('',#38,.T.);
#31=FACE_OUTER_BOUND('',#41,.T.);
#32=FACE_OUTER_BOUND('',#42,.T.);
#33=FACE_OUTER_BOUND('',#45,.T.);
#34=FACE_OUTER_BOUND('',#46,.T.);
#35=EDGE_LOOP('',(#113,#114,#115,#116,#117,#118));
#36=EDGE_LOOP('',(#119,#120,#121,#122,#123,#124));
#37=EDGE_LOOP('',(#125,#126,#127,#128));
#38=EDGE_LOOP('',(#129,#130,#131,#132));
#39=EDGE_LOOP('',(#133,#134));
#40=EDGE_LOOP('',(#135,#136));
#41=EDGE_LOOP('',(#137,#138,#139,#140));
#42=EDGE_LOOP('',(#141,#142,#143,#144));
#43=EDGE_LOOP('',(#145,#146));
#44=EDGE_LOOP('',(#147,#148));
#45=EDGE_LOOP('',(#149,#150,#151,#152));
#46=EDGE_LOOP('',(#153,#154,#155,#156));
#47=LINE('',#263,#57);
#48=LINE('',#342,#58);
#49=LINE('',#402,#59);
#50=LINE('',#406,#60);
#51=LINE('',#410,#61);
#52=LINE('',#413,#62);
#53=LINE('',#416,#63);
#54=LINE('',#417,#64);
#55=LINE('',#421,#65);
#56=LINE('',#423,#66);
#57=VECTOR('',#208,4.);
#58=VECTOR('',#211,4.);
#59=VECTOR('',#214,10.);
#60=VECTOR('',#217,10.);
#61=VECTOR('',#222,10.);
#62=VECTOR('',#225,10.);
#63=VECTOR('',#228,10.);
#64=VECTOR('',#229,10.);
#65=VECTOR('',#234,10.);
#66=VECTOR('',#237,10.);
#67=B_SPLINE_CURVE_WITH_KNOTS('',3,(#244,#245,#246,#247,#248,#249,#250,
#251,#252,#253,#254,#255,#256,#257,#258,#259,#260,#261),.UNSPECIFIED.,.F.,
 .F.,(4,2,2,2,2,2,2,2,4),(0.604258814526494,0.755320179721077,0.90638154491566,
1.05744958698432,1.20851762905299,1.35958567112165,1.51065371319031,1.6617150783849,
1.81277644357948),.UNSPECIFIED.);
#68=B_SPLINE_CURVE_WITH_KNOTS('',3,(#265,#266,#267,#268,#269,#270,#271,
#272,#273,#274,#275,#276,#277,#278,#279,#280,#281,#282,#283,#284,#285,#286,
#287,#288,#289,#290),.UNSPECIFIED.,.F.,.F.,(4,2,2,2,2,2,2,2,2,2,2,2,4),
(0.,0.151068042068664,0.302136084137327,0.45319744933191,0.604258814526493,
0.755320179721076,0.90638154491566,1.05744958698432,1.20851762905299,1.35958567112165,
1.51065371319031,1.6617150783849,1.81277644357948),.UNSPECIFIED.);
#69=B_SPLINE_CURVE_WITH_KNOTS('',3,(#291,#292,#293,#294,#295,#296,#297,
#298,#299,#300),.UNSPECIFIED.,.F.,.F.,(4,2,2,2,4),(1.81277644357948,1.96383780877406,
2.11489917396865,2.26596721603731,2.41703525810597),.UNSPECIFIED.);
#70=B_SPLINE_CURVE_WITH_KNOTS('',3,(#301,#302,#303,#304,#305,#306,#307,
#308,#309,#310,#311,#312,#313,#314,#315,#316,#317,#318,#319),
 .UNSPECIFIED.,.F.,.F.,(4,2,2,2,3,2,2,2,4),(1.81277644357948,1.96383780877406,
2.11489917396865,2.26596721603731,2.41703525810597,2.56810330017464,2.7191713422433,
2.87023270743788,3.02129407263247),.UNSPECIFIED.);
#71=B_SPLINE_CURVE_WITH_KNOTS('',3,(#323,#324,#325,#326,#327,#328,#329,
#330,#331,#332,#333,#334,#335,#336,#337,#338,#339,#340),.UNSPECIFIED.,.F.,
 .F.,(4,2,2,2,2,2,2,2,4),(0.604258814526493,0.755320179721076,0.906381544915659,
1.05744958698432,1.20851762905299,1.35958567112165,1.51065371319031,1.6617150783849,
1.81277644357948),.UNSPECIFIED.);
#72=B_SPLINE_CURVE_WITH_KNOTS('',3,(#344,#345,#346,#347,#348,#349,#350,
#351,#352,#353,#354,#355,#356,#357,#358,#359,#360,#361,#362,#363,#364,#365,
#366,#367,#368,#369),.UNSPECIFIED.,.F.,.F.,(4,2,2,2,2,2,2,2,2,2,2,2,4),
(0.,0.151068042068663,0.302136084137327,0.45319744933191,0.604258814526493,
0.755320179721076,0.906381544915659,1.05744958698432,1.20851762905299,1.35958567112165,
1.51065371319031,1.6617150783849,1.81277644357948),.UNSPECIFIED.);
#73=B_SPLINE_CURVE_WITH_KNOTS('',3,(#370,#371,#372,#373,#374,#375,#376,
#377,#378,#379),.UNSPECIFIED.,.F.,.F.,(4,2,2,2,4),(1.81277644357948,1.96383780877406,
2.11489917396864,2.26596721603731,2.41703525810597),.UNSPECIFIED.);
#74=B_SPLINE_CURVE_WITH_KNOTS('',3,(#380,#381,#382,#383,#384,#385,#386,
#387,#388,#389,#390,#391,#392,#393,#394,#395,#396,#397,#398),
 .UNSPECIFIED.,.F.,.F.,(4,2,2,2,3,2,2,2,4),(1.81277644357948,1.96383780877406,
2.11489917396864,2.26596721603731,2.41703525810597,2.56810330017464,2.7191713422433,
2.87023270743788,3.02129407263246),.UNSPECIFIED.);
#75=VERTEX_POINT('',#242);
#76=VERTEX_POINT('',#243);
#77=VERTEX_POINT('',#262);
#78=VERTEX_POINT('',#264);
#79=VERTEX_POINT('',#321);
#80=VERTEX_POINT('',#322);
#81=VERTEX_POINT('',#341);
#82=VERTEX_POINT('',#343);
#83=VERTEX_POINT('',#400);
#84=VERTEX_POINT('',#401);
#85=VERTEX_POINT('',#403);
#86=VERTEX_POINT('',#405);
#87=VERTEX_POINT('',#409);
#88=VERTEX_POINT('',#411);
#89=VERTEX_POINT('',#415);
#90=VERTEX_POINT('',#419);
#91=EDGE_CURVE('',#75,#76,#67,.T.);
#92=EDGE_CURVE('',#75,#77,#47,.T.);
#93=EDGE_CURVE('',#78,#77,#68,.T.);
#94=EDGE_CURVE('',#77,#78,#69,.T.);
#95=EDGE_CURVE('',#76,#75,#70,.T.);
#96=EDGE_CURVE('',#79,#80,#71,.T.);
#97=EDGE_CURVE('',#79,#81,#48,.T.);
#98=EDGE_CURVE('',#82,#81,#72,.T.);
#99=EDGE_CURVE('',#81,#82,#73,.T.);
#100=EDGE_CURVE('',#80,#79,#74,.T.);
#101=EDGE_CURVE('',#83,#84,#49,.T.);
#102=EDGE_CURVE('',#84,#85,#19,.T.);
#103=EDGE_CURVE('',#85,#86,#50,.T.);
#104=EDGE_CURVE('',#86,#83,#20,.T.);
#105=EDGE_CURVE('',#87,#84,#51,.T.);
#106=EDGE_CURVE('',#88,#87,#21,.T.);
#107=EDGE_CURVE('',#85,#88,#52,.T.);
#108=EDGE_CURVE('',#89,#88,#53,.T.);
#109=EDGE_CURVE('',#86,#89,#54,.T.);
#110=EDGE_CURVE('',#90,#89,#22,.T.);
#111=EDGE_CURVE('',#83,#90,#55,.T.);
#112=EDGE_CURVE('',#87,#90,#56,.T.);
#113=ORIENTED_EDGE('',*,*,#91,.F.);
#114=ORIENTED_EDGE('',*,*,#92,.T.);
#115=ORIENTED_EDGE('',*,*,#93,.F.);
#116=ORIENTED_EDGE('',*,*,#94,.F.);
#117=ORIENTED_EDGE('',*,*,#92,.F.);
#118=ORIENTED_EDGE('',*,*,#95,.F.);
#119=ORIENTED_EDGE('',*,*,#96,.F.);
#120=ORIENTED_EDGE('',*,*,#97,.T.);
#121=ORIENTED_EDGE('',*,*,#98,.F.);
#122=ORIENTED_EDGE('',*,*,#99,.F.);
#123=ORIENTED_EDGE('',*,*,#97,.F.);
#124=ORIENTED_EDGE('',*,*,#100,.F.);
#125=ORIENTED_EDGE('',*,*,#101,.T.);
#126=ORIENTED_EDGE('',*,*,#102,.T.);
#127=ORIENTED_EDGE('',*,*,#103,.T.);
#128=ORIENTED_EDGE('',*,*,#104,.T.);
#129=ORIENTED_EDGE('',*,*,#105,.F.);
#130=ORIENTED_EDGE('',*,*,#106,.F.);
#131=ORIENTED_EDGE('',*,*,#107,.F.);
#132=ORIENTED_EDGE('',*,*,#102,.F.);
#133=ORIENTED_EDGE('',*,*,#91,.T.);
#134=ORIENTED_EDGE('',*,*,#95,.T.);
#135=ORIENTED_EDGE('',*,*,#96,.T.);
#136=ORIENTED_EDGE('',*,*,#100,.T.);
#137=ORIENTED_EDGE('',*,*,#107,.T.);
#138=ORIENTED_EDGE('',*,*,#108,.F.);
#139=ORIENTED_EDGE('',*,*,#109,.F.);
#140=ORIENTED_EDGE('',*,*,#103,.F.);
#141=ORIENTED_EDGE('',*,*,#109,.T.);
#142=ORIENTED_EDGE('',*,*,#110,.F.);
#143=ORIENTED_EDGE('',*,*,#111,.F.);
#144=ORIENTED_EDGE('',*,*,#104,.F.);
#145=ORIENTED_EDGE('',*,*,#93,.T.);
#146=ORIENTED_EDGE('',*,*,#94,.T.);
#147=ORIENTED_EDGE('',*,*,#98,.T.);
#148=ORIENTED_EDGE('',*,*,#99,.T.);
#149=ORIENTED_EDGE('',*,*,#111,.T.);
#150=ORIENTED_EDGE('',*,*,#112,.F.);
#151=ORIENTED_EDGE('',*,*,#105,.T.);
#152=ORIENTED_EDGE('',*,*,#101,.F.);
#153=ORIENTED_EDGE('',*,*,#112,.T.);
#154=ORIENTED_EDGE('',*,*,#110,.T.);
#155=ORIENTED_EDGE('',*,*,#108,.T.);
#156=ORIENTED_EDGE('',*,*,#106,.T.);
#157=CYLINDRICAL_SURFACE('',#192,4.);
#158=CYLINDRICAL_SURFACE('',#193,4.);
#159=CYLINDRICAL_SURFACE('',#197,21.2);
#160=CYLINDRICAL_SURFACE('',#200,21.2);
#161=ADVANCED_FACE('',(#27),#157,.F.);
#162=ADVANCED_FACE('',(#28),#158,.F.);
#163=ADVANCED_FACE('',(#29),#23,.F.);
#164=ADVANCED_FACE('',(#30,#15,#16),#159,.T.);
#165=ADVANCED_FACE('',(#31),#24,.T.);
#166=ADVANCED_FACE('',(#32,#17,#18),#160,.F.);
#167=ADVANCED_FACE('',(#33),#25,.T.);
#168=ADVANCED_FACE('',(#34),#26,.T.);
#169=CLOSED_SHELL('',(#161,#162,#163,#164,#165,#166,#167,#168));
#170=DERIVED_UNIT_ELEMENT(#173,1.);
#171=DERIVED_UNIT_ELEMENT(#430,-3.);
#172=DIMENSIONAL_EXPONENTS(1.,0.,0.,0.,0.,0.,0.);
#173=(
CONVERSION_BASED_UNIT('gram',#175)
MASS_UNIT()
NAMED_UNIT(#172)
);
#174=(
MASS_UNIT()
NAMED_UNIT(*)
SI_UNIT(.KILO.,.GRAM.)
);
#175=MASS_MEASURE_WITH_UNIT(MASS_MEASURE(0.001),#174);
#176=DERIVED_UNIT((#170,#171));
#177=MEASURE_REPRESENTATION_ITEM('density measure',
POSITIVE_RATIO_MEASURE(8.),#176);
#178=PROPERTY_DEFINITION_REPRESENTATION(#183,#180);
#179=PROPERTY_DEFINITION_REPRESENTATION(#184,#181);
#180=REPRESENTATION('material name',(#182),#427);
#181=REPRESENTATION('density',(#177),#427);
#182=DESCRIPTIVE_REPRESENTATION_ITEM('Edelstahl AISI 304',
'Edelstahl AISI 304');
#183=PROPERTY_DEFINITION('material property','material name',#437);
#184=PROPERTY_DEFINITION('material property','density of part',#437);
#185=DATE_TIME_ROLE('creation_date');
#186=APPLIED_DATE_AND_TIME_ASSIGNMENT(#187,#185,(#437));
#187=DATE_AND_TIME(#188,#189);
#188=CALENDAR_DATE(2021,23,7);
#189=LOCAL_TIME(0,0,0.,#190);
#190=COORDINATED_UNIVERSAL_TIME_OFFSET(0,0,.BEHIND.);
#191=AXIS2_PLACEMENT_3D('placement',#240,#204,#205);
#192=AXIS2_PLACEMENT_3D('',#241,#206,#207);
#193=AXIS2_PLACEMENT_3D('',#320,#209,#210);
#194=AXIS2_PLACEMENT_3D('',#399,#212,#213);
#195=AXIS2_PLACEMENT_3D('',#404,#215,#216);
#196=AXIS2_PLACEMENT_3D('',#407,#218,#219);
#197=AXIS2_PLACEMENT_3D('',#408,#220,#221);
#198=AXIS2_PLACEMENT_3D('',#412,#223,#224);
#199=AXIS2_PLACEMENT_3D('',#414,#226,#227);
#200=AXIS2_PLACEMENT_3D('',#418,#230,#231);
#201=AXIS2_PLACEMENT_3D('',#420,#232,#233);
#202=AXIS2_PLACEMENT_3D('',#422,#235,#236);
#203=AXIS2_PLACEMENT_3D('',#424,#238,#239);
#204=DIRECTION('axis',(0.,0.,1.));
#205=DIRECTION('refdir',(1.,0.,0.));
#206=DIRECTION('center_axis',(0.,-1.,-1.97372982155583E-16));
#207=DIRECTION('ref_axis',(-1.,0.,0.));
#208=DIRECTION('',(0.,-1.,-1.97372982155583E-16));
#209=DIRECTION('center_axis',(0.,-1.,-1.97372982155583E-16));
#210=DIRECTION('ref_axis',(-1.,0.,0.));
#211=DIRECTION('',(0.,-1.,-1.97372982155583E-16));
#212=DIRECTION('center_axis',(1.,0.,0.));
#213=DIRECTION('ref_axis',(0.,0.,-1.));
#214=DIRECTION('',(0.,1.,0.));
#215=DIRECTION('center_axis',(-1.,0.,0.));
#216=DIRECTION('ref_axis',(0.,0.807678859831949,-0.589622641509434));
#217=DIRECTION('',(0.,-1.,0.));
#218=DIRECTION('center_axis',(1.,0.,0.));
#219=DIRECTION('ref_axis',(0.,-0.807678859831949,0.589622641509434));
#220=DIRECTION('center_axis',(1.,0.,0.));
#221=DIRECTION('ref_axis',(0.,0.807678859831949,-0.589622641509434));
#222=DIRECTION('',(-1.,0.,0.));
#223=DIRECTION('center_axis',(1.,0.,0.));
#224=DIRECTION('ref_axis',(0.,0.807678859831949,-0.589622641509434));
#225=DIRECTION('',(1.,0.,0.));
#226=DIRECTION('center_axis',(0.,0.,-1.));
#227=DIRECTION('ref_axis',(0.,1.,0.));
#228=DIRECTION('',(0.,1.,0.));
#229=DIRECTION('',(1.,0.,0.));
#230=DIRECTION('center_axis',(1.,0.,0.));
#231=DIRECTION('ref_axis',(0.,-0.807678859831949,0.589622641509434));
#232=DIRECTION('center_axis',(-1.,0.,0.));
#233=DIRECTION('ref_axis',(0.,-0.807678859831949,0.589622641509434));
#234=DIRECTION('',(1.,0.,0.));
#235=DIRECTION('center_axis',(0.,0.,1.));
#236=DIRECTION('ref_axis',(0.,-1.,0.));
#237=DIRECTION('',(0.,-1.,0.));
#238=DIRECTION('center_axis',(1.,0.,0.));
#239=DIRECTION('ref_axis',(0.,0.,-1.));
#240=CARTESIAN_POINT('',(0.,0.,0.));
#241=CARTESIAN_POINT('Origin',(35.,8.07720817156267,-12.5));
#242=CARTESIAN_POINT('',(39.,8.07720817156267,-12.5));
#243=CARTESIAN_POINT('',(31.,8.07720817156267,-12.5));
#244=CARTESIAN_POINT('Ctrl Pts',(39.,8.07720817156267,-12.5));
#245=CARTESIAN_POINT('Ctrl Pts',(39.,8.07720817156267,-11.9964621160181));
#246=CARTESIAN_POINT('Ctrl Pts',(38.8991211880403,8.0574509303474,-11.4601776347158));
#247=CARTESIAN_POINT('Ctrl Pts',(38.4905281400136,7.98605286086091,-10.4750086991061));
#248=CARTESIAN_POINT('Ctrl Pts',(38.182879905206,7.93539813582223,-10.0260256557136));
#249=CARTESIAN_POINT('Ctrl Pts',(37.4739586775633,7.83996325559143,-9.31710442807093));
#250=CARTESIAN_POINT('Ctrl Pts',(37.0249823130969,7.78890901072687,-9.00946847212613));
#251=CARTESIAN_POINT('Ctrl Pts',(36.0398364957769,7.71659251986669,-8.60088433272483));
#252=CARTESIAN_POINT('Ctrl Pts',(35.5035601402289,7.69643005903964,-8.49999999999999));
#253=CARTESIAN_POINT('Ctrl Pts',(34.4964398597711,7.69643005903964,-8.49999999999999));
#254=CARTESIAN_POINT('Ctrl Pts',(33.9601635042231,7.71659251986669,-8.60088433272483));
#255=CARTESIAN_POINT('Ctrl Pts',(32.9750176869031,7.78890901072687,-9.00946847212613));
#256=CARTESIAN_POINT('Ctrl Pts',(32.5260413224367,7.83996325559143,-9.31710442807093));
#257=CARTESIAN_POINT('Ctrl Pts',(31.817120094794,7.93539813582223,-10.0260256557136));
#258=CARTESIAN_POINT('Ctrl Pts',(31.5094718599864,7.98605286086091,-10.4750086991061));
#259=CARTESIAN_POINT('Ctrl Pts',(31.1008788119597,8.0574509303474,-11.4601776347158));
#260=CARTESIAN_POINT('Ctrl Pts',(31.,8.07720817156267,-11.9964621160181));
#261=CARTESIAN_POINT('Ctrl Pts',(31.,8.07720817156267,-12.5));
#262=CARTESIAN_POINT('',(39.,4.07720817156267,-12.5));
#263=CARTESIAN_POINT('',(39.,8.07720817156267,-12.5));
#264=CARTESIAN_POINT('',(35.,3.69643005903964,-16.5));
#265=CARTESIAN_POINT('Ctrl Pts',(35.,3.69643005903964,-16.5));
#266=CARTESIAN_POINT('Ctrl Pts',(34.4964398597711,3.69643005903964,-16.5));
#267=CARTESIAN_POINT('Ctrl Pts',(33.9601635042231,3.71659251986669,-16.3991156672752));
#268=CARTESIAN_POINT('Ctrl Pts',(32.9750176869031,3.78890901072687,-15.9905315278739));
#269=CARTESIAN_POINT('Ctrl Pts',(32.5260413224367,3.83996325559143,-15.6828955719291));
#270=CARTESIAN_POINT('Ctrl Pts',(31.817120094794,3.93539813582223,-14.9739743442864));
#271=CARTESIAN_POINT('Ctrl Pts',(31.5094718599864,3.98605286086091,-14.5249913008939));
#272=CARTESIAN_POINT('Ctrl Pts',(31.1008788119597,4.0574509303474,-13.5398223652842));
#273=CARTESIAN_POINT('Ctrl Pts',(31.,4.07720817156267,-13.0035378839819));
#274=CARTESIAN_POINT('Ctrl Pts',(31.,4.07720817156267,-11.9964621160181));
#275=CARTESIAN_POINT('Ctrl Pts',(31.1008788119597,4.0574509303474,-11.4601776347158));
#276=CARTESIAN_POINT('Ctrl Pts',(31.5094718599864,3.98605286086091,-10.4750086991061));
#277=CARTESIAN_POINT('Ctrl Pts',(31.817120094794,3.93539813582223,-10.0260256557136));
#278=CARTESIAN_POINT('Ctrl Pts',(32.5260413224367,3.83996325559143,-9.31710442807093));
#279=CARTESIAN_POINT('Ctrl Pts',(32.9750176869031,3.78890901072687,-9.00946847212613));
#280=CARTESIAN_POINT('Ctrl Pts',(33.9601635042231,3.71659251986669,-8.60088433272483));
#281=CARTESIAN_POINT('Ctrl Pts',(34.4964398597711,3.69643005903964,-8.49999999999999));
#282=CARTESIAN_POINT('Ctrl Pts',(35.5035601402289,3.69643005903964,-8.49999999999999));
#283=CARTESIAN_POINT('Ctrl Pts',(36.0398364957769,3.71659251986669,-8.60088433272483));
#284=CARTESIAN_POINT('Ctrl Pts',(37.0249823130969,3.78890901072687,-9.00946847212613));
#285=CARTESIAN_POINT('Ctrl Pts',(37.4739586775633,3.83996325559143,-9.31710442807093));
#286=CARTESIAN_POINT('Ctrl Pts',(38.182879905206,3.93539813582223,-10.0260256557136));
#287=CARTESIAN_POINT('Ctrl Pts',(38.4905281400136,3.98605286086091,-10.4750086991061));
#288=CARTESIAN_POINT('Ctrl Pts',(38.8991211880403,4.0574509303474,-11.4601776347158));
#289=CARTESIAN_POINT('Ctrl Pts',(39.,4.07720817156267,-11.9964621160181));
#290=CARTESIAN_POINT('Ctrl Pts',(39.,4.07720817156267,-12.5));
#291=CARTESIAN_POINT('Ctrl Pts',(39.,4.07720817156267,-12.5));
#292=CARTESIAN_POINT('Ctrl Pts',(39.,4.07720817156267,-13.0035378839819));
#293=CARTESIAN_POINT('Ctrl Pts',(38.8991211880403,4.0574509303474,-13.5398223652842));
#294=CARTESIAN_POINT('Ctrl Pts',(38.4905281400136,3.98605286086091,-14.5249913008939));
#295=CARTESIAN_POINT('Ctrl Pts',(38.182879905206,3.93539813582223,-14.9739743442864));
#296=CARTESIAN_POINT('Ctrl Pts',(37.4739586775633,3.83996325559143,-15.6828955719291));
#297=CARTESIAN_POINT('Ctrl Pts',(37.0249823130969,3.78890901072687,-15.9905315278739));
#298=CARTESIAN_POINT('Ctrl Pts',(36.0398364957769,3.71659251986669,-16.3991156672752));
#299=CARTESIAN_POINT('Ctrl Pts',(35.5035601402289,3.69643005903964,-16.5));
#300=CARTESIAN_POINT('Ctrl Pts',(35.,3.69643005903964,-16.5));
#301=CARTESIAN_POINT('Ctrl Pts',(31.,8.07720817156267,-12.5));
#302=CARTESIAN_POINT('Ctrl Pts',(31.,8.07720817156267,-13.0035378839819));
#303=CARTESIAN_POINT('Ctrl Pts',(31.1008788119597,8.0574509303474,-13.5398223652842));
#304=CARTESIAN_POINT('Ctrl Pts',(31.5094718599864,7.98605286086091,-14.5249913008939));
#305=CARTESIAN_POINT('Ctrl Pts',(31.817120094794,7.93539813582223,-14.9739743442864));
#306=CARTESIAN_POINT('Ctrl Pts',(32.5260413224367,7.83996325559143,-15.6828955719291));
#307=CARTESIAN_POINT('Ctrl Pts',(32.9750176869031,7.78890901072687,-15.9905315278739));
#308=CARTESIAN_POINT('Ctrl Pts',(33.9601635042231,7.71659251986669,-16.3991156672752));
#309=CARTESIAN_POINT('Ctrl Pts',(34.4964398597711,7.69643005903964,-16.5));
#310=CARTESIAN_POINT('Ctrl Pts',(35.,7.69643005903964,-16.5));
#311=CARTESIAN_POINT('Ctrl Pts',(35.5035601402289,7.69643005903964,-16.5));
#312=CARTESIAN_POINT('Ctrl Pts',(36.0398364957769,7.71659251986669,-16.3991156672752));
#313=CARTESIAN_POINT('Ctrl Pts',(37.0249823130969,7.78890901072687,-15.9905315278739));
#314=CARTESIAN_POINT('Ctrl Pts',(37.4739586775633,7.83996325559143,-15.6828955719291));
#315=CARTESIAN_POINT('Ctrl Pts',(38.182879905206,7.93539813582223,-14.9739743442864));
#316=CARTESIAN_POINT('Ctrl Pts',(38.4905281400136,7.98605286086091,-14.5249913008939));
#317=CARTESIAN_POINT('Ctrl Pts',(38.8991211880403,8.0574509303474,-13.5398223652842));
#318=CARTESIAN_POINT('Ctrl Pts',(39.,8.07720817156267,-13.0035378839819));
#319=CARTESIAN_POINT('Ctrl Pts',(39.,8.07720817156267,-12.5));
#320=CARTESIAN_POINT('Origin',(-35.,8.07720817156267,-12.5));
#321=CARTESIAN_POINT('',(-31.,8.07720817156267,-12.5));
#322=CARTESIAN_POINT('',(-39.,8.07720817156267,-12.5));
#323=CARTESIAN_POINT('Ctrl Pts',(-31.,8.07720817156267,-12.5));
#324=CARTESIAN_POINT('Ctrl Pts',(-31.,8.07720817156267,-11.9964621160181));
#325=CARTESIAN_POINT('Ctrl Pts',(-31.1008788119597,8.0574509303474,-11.4601776347158));
#326=CARTESIAN_POINT('Ctrl Pts',(-31.5094718599864,7.98605286086091,-10.4750086991061));
#327=CARTESIAN_POINT('Ctrl Pts',(-31.8171200947941,7.93539813582223,-10.0260256557136));
#328=CARTESIAN_POINT('Ctrl Pts',(-32.5260413224367,7.83996325559143,-9.31710442807093));
#329=CARTESIAN_POINT('Ctrl Pts',(-32.9750176869031,7.78890901072687,-9.00946847212612));
#330=CARTESIAN_POINT('Ctrl Pts',(-33.9601635042231,7.71659251986669,-8.60088433272483));
#331=CARTESIAN_POINT('Ctrl Pts',(-34.4964398597711,7.69643005903964,-8.5));
#332=CARTESIAN_POINT('Ctrl Pts',(-35.5035601402289,7.69643005903964,-8.5));
#333=CARTESIAN_POINT('Ctrl Pts',(-36.0398364957769,7.71659251986669,-8.60088433272483));
#334=CARTESIAN_POINT('Ctrl Pts',(-37.0249823130969,7.78890901072687,-9.00946847212613));
#335=CARTESIAN_POINT('Ctrl Pts',(-37.4739586775633,7.83996325559143,-9.31710442807093));
#336=CARTESIAN_POINT('Ctrl Pts',(-38.1828799052059,7.93539813582223,-10.0260256557136));
#337=CARTESIAN_POINT('Ctrl Pts',(-38.4905281400136,7.98605286086091,-10.4750086991061));
#338=CARTESIAN_POINT('Ctrl Pts',(-38.8991211880403,8.0574509303474,-11.4601776347158));
#339=CARTESIAN_POINT('Ctrl Pts',(-39.,8.07720817156267,-11.9964621160181));
#340=CARTESIAN_POINT('Ctrl Pts',(-39.,8.07720817156267,-12.5));
#341=CARTESIAN_POINT('',(-31.,4.07720817156267,-12.5));
#342=CARTESIAN_POINT('',(-31.,8.07720817156267,-12.5));
#343=CARTESIAN_POINT('',(-35.,3.69643005903964,-16.5));
#344=CARTESIAN_POINT('Ctrl Pts',(-35.,3.69643005903964,-16.5));
#345=CARTESIAN_POINT('Ctrl Pts',(-35.5035601402289,3.69643005903964,-16.5));
#346=CARTESIAN_POINT('Ctrl Pts',(-36.0398364957769,3.71659251986669,-16.3991156672752));
#347=CARTESIAN_POINT('Ctrl Pts',(-37.0249823130969,3.78890901072687,-15.9905315278739));
#348=CARTESIAN_POINT('Ctrl Pts',(-37.4739586775633,3.83996325559143,-15.6828955719291));
#349=CARTESIAN_POINT('Ctrl Pts',(-38.1828799052059,3.93539813582223,-14.9739743442864));
#350=CARTESIAN_POINT('Ctrl Pts',(-38.4905281400136,3.98605286086091,-14.5249913008939));
#351=CARTESIAN_POINT('Ctrl Pts',(-38.8991211880403,4.0574509303474,-13.5398223652842));
#352=CARTESIAN_POINT('Ctrl Pts',(-39.,4.07720817156267,-13.0035378839819));
#353=CARTESIAN_POINT('Ctrl Pts',(-39.,4.07720817156267,-11.9964621160181));
#354=CARTESIAN_POINT('Ctrl Pts',(-38.8991211880403,4.0574509303474,-11.4601776347158));
#355=CARTESIAN_POINT('Ctrl Pts',(-38.4905281400136,3.98605286086091,-10.4750086991061));
#356=CARTESIAN_POINT('Ctrl Pts',(-38.1828799052059,3.93539813582223,-10.0260256557136));
#357=CARTESIAN_POINT('Ctrl Pts',(-37.4739586775633,3.83996325559143,-9.31710442807093));
#358=CARTESIAN_POINT('Ctrl Pts',(-37.0249823130969,3.78890901072687,-9.00946847212613));
#359=CARTESIAN_POINT('Ctrl Pts',(-36.0398364957769,3.71659251986669,-8.60088433272483));
#360=CARTESIAN_POINT('Ctrl Pts',(-35.5035601402289,3.69643005903964,-8.5));
#361=CARTESIAN_POINT('Ctrl Pts',(-34.4964398597711,3.69643005903964,-8.5));
#362=CARTESIAN_POINT('Ctrl Pts',(-33.9601635042231,3.71659251986669,-8.60088433272483));
#363=CARTESIAN_POINT('Ctrl Pts',(-32.9750176869031,3.78890901072687,-9.00946847212613));
#364=CARTESIAN_POINT('Ctrl Pts',(-32.5260413224367,3.83996325559143,-9.31710442807093));
#365=CARTESIAN_POINT('Ctrl Pts',(-31.8171200947941,3.93539813582223,-10.0260256557136));
#366=CARTESIAN_POINT('Ctrl Pts',(-31.5094718599864,3.98605286086091,-10.4750086991061));
#367=CARTESIAN_POINT('Ctrl Pts',(-31.1008788119597,4.0574509303474,-11.4601776347158));
#368=CARTESIAN_POINT('Ctrl Pts',(-31.,4.07720817156267,-11.9964621160181));
#369=CARTESIAN_POINT('Ctrl Pts',(-31.,4.07720817156267,-12.5));
#370=CARTESIAN_POINT('Ctrl Pts',(-31.,4.07720817156267,-12.5));
#371=CARTESIAN_POINT('Ctrl Pts',(-31.,4.07720817156267,-13.0035378839819));
#372=CARTESIAN_POINT('Ctrl Pts',(-31.1008788119597,4.0574509303474,-13.5398223652842));
#373=CARTESIAN_POINT('Ctrl Pts',(-31.5094718599864,3.98605286086091,-14.5249913008939));
#374=CARTESIAN_POINT('Ctrl Pts',(-31.8171200947941,3.93539813582223,-14.9739743442864));
#375=CARTESIAN_POINT('Ctrl Pts',(-32.5260413224367,3.83996325559143,-15.6828955719291));
#376=CARTESIAN_POINT('Ctrl Pts',(-32.9750176869031,3.78890901072687,-15.9905315278739));
#377=CARTESIAN_POINT('Ctrl Pts',(-33.9601635042231,3.71659251986669,-16.3991156672752));
#378=CARTESIAN_POINT('Ctrl Pts',(-34.4964398597711,3.69643005903964,-16.5));
#379=CARTESIAN_POINT('Ctrl Pts',(-35.,3.69643005903964,-16.5));
#380=CARTESIAN_POINT('Ctrl Pts',(-39.,8.07720817156267,-12.5));
#381=CARTESIAN_POINT('Ctrl Pts',(-39.,8.07720817156267,-13.0035378839819));
#382=CARTESIAN_POINT('Ctrl Pts',(-38.8991211880403,8.0574509303474,-13.5398223652842));
#383=CARTESIAN_POINT('Ctrl Pts',(-38.4905281400136,7.98605286086091,-14.5249913008939));
#384=CARTESIAN_POINT('Ctrl Pts',(-38.1828799052059,7.93539813582223,-14.9739743442864));
#385=CARTESIAN_POINT('Ctrl Pts',(-37.4739586775633,7.83996325559143,-15.6828955719291));
#386=CARTESIAN_POINT('Ctrl Pts',(-37.0249823130969,7.78890901072688,-15.9905315278739));
#387=CARTESIAN_POINT('Ctrl Pts',(-36.0398364957769,7.7165925198667,-16.3991156672752));
#388=CARTESIAN_POINT('Ctrl Pts',(-35.5035601402289,7.69643005903964,-16.5));
#389=CARTESIAN_POINT('Ctrl Pts',(-35.,7.69643005903964,-16.5));
#390=CARTESIAN_POINT('Ctrl Pts',(-34.4964398597711,7.69643005903964,-16.5));
#391=CARTESIAN_POINT('Ctrl Pts',(-33.9601635042231,7.71659251986669,-16.3991156672752));
#392=CARTESIAN_POINT('Ctrl Pts',(-32.9750176869031,7.78890901072687,-15.9905315278739));
#393=CARTESIAN_POINT('Ctrl Pts',(-32.5260413224367,7.83996325559143,-15.6828955719291));
#394=CARTESIAN_POINT('Ctrl Pts',(-31.8171200947941,7.93539813582223,-14.9739743442864));
#395=CARTESIAN_POINT('Ctrl Pts',(-31.5094718599864,7.98605286086091,-14.5249913008939));
#396=CARTESIAN_POINT('Ctrl Pts',(-31.1008788119597,8.0574509303474,-13.5398223652842));
#397=CARTESIAN_POINT('Ctrl Pts',(-31.,8.07720817156267,-13.0035378839819));
#398=CARTESIAN_POINT('Ctrl Pts',(-31.,8.07720817156267,-12.5));
#399=CARTESIAN_POINT('Origin',(-45.,4.03860408578134,-12.5));
#400=CARTESIAN_POINT('',(-45.,0.,0.));
#401=CARTESIAN_POINT('',(-45.,4.,0.));
#402=CARTESIAN_POINT('',(-45.,4.,0.));
#403=CARTESIAN_POINT('',(-45.,4.,-25.));
#404=CARTESIAN_POINT('Origin',(-45.,-13.1227918284373,-12.5));
#405=CARTESIAN_POINT('',(-45.,0.,-25.));
#406=CARTESIAN_POINT('',(-45.,0.,-25.));
#407=CARTESIAN_POINT('Origin',(-45.,-17.1227918284373,-12.5));
#408=CARTESIAN_POINT('Origin',(0.,-13.1227918284373,-12.5));
#409=CARTESIAN_POINT('',(45.,4.,0.));
#410=CARTESIAN_POINT('',(0.,4.,0.));
#411=CARTESIAN_POINT('',(45.,4.,-25.));
#412=CARTESIAN_POINT('Origin',(45.,-13.1227918284373,-12.5));
#413=CARTESIAN_POINT('',(0.,4.,-25.));
#414=CARTESIAN_POINT('Origin',(0.,0.,-25.));
#415=CARTESIAN_POINT('',(45.,0.,-25.));
#416=CARTESIAN_POINT('',(45.,0.,-25.));
#417=CARTESIAN_POINT('',(0.,0.,-25.));
#418=CARTESIAN_POINT('Origin',(0.,-17.1227918284373,-12.5));
#419=CARTESIAN_POINT('',(45.,0.,0.));
#420=CARTESIAN_POINT('Origin',(45.,-17.1227918284373,-12.5));
#421=CARTESIAN_POINT('',(0.,0.,0.));
#422=CARTESIAN_POINT('Origin',(0.,4.,0.));
#423=CARTESIAN_POINT('',(45.,4.,0.));
#424=CARTESIAN_POINT('Origin',(45.,4.03860408578134,-12.5));
#425=UNCERTAINTY_MEASURE_WITH_UNIT(LENGTH_MEASURE(0.01),#429,
'DISTANCE_ACCURACY_VALUE',
'Maximum model space distance between geometric entities at asserted c
onnectivities');
#426=UNCERTAINTY_MEASURE_WITH_UNIT(LENGTH_MEASURE(0.01),#429,
'DISTANCE_ACCURACY_VALUE',
'Maximum model space distance between geometric entities at asserted c
onnectivities');
#427=(
GEOMETRIC_REPRESENTATION_CONTEXT(3)
GLOBAL_UNCERTAINTY_ASSIGNED_CONTEXT((#425))
GLOBAL_UNIT_ASSIGNED_CONTEXT((#429,#431,#432))
REPRESENTATION_CONTEXT('','3D')
);
#428=(
GEOMETRIC_REPRESENTATION_CONTEXT(3)
GLOBAL_UNCERTAINTY_ASSIGNED_CONTEXT((#426))
GLOBAL_UNIT_ASSIGNED_CONTEXT((#429,#431,#432))
REPRESENTATION_CONTEXT('','3D')
);
#429=(
LENGTH_UNIT()
NAMED_UNIT(*)
SI_UNIT(.MILLI.,.METRE.)
);
#430=(
LENGTH_UNIT()
NAMED_UNIT(*)
SI_UNIT(.CENTI.,.METRE.)
);
#431=(
NAMED_UNIT(*)
PLANE_ANGLE_UNIT()
SI_UNIT($,.RADIAN.)
);
#432=(
NAMED_UNIT(*)
SI_UNIT($,.STERADIAN.)
SOLID_ANGLE_UNIT()
);
#433=SHAPE_DEFINITION_REPRESENTATION(#434,#435);
#434=PRODUCT_DEFINITION_SHAPE('',$,#437);
#435=SHAPE_REPRESENTATION('',(#191),#427);
#436=PRODUCT_DEFINITION_CONTEXT('part definition',#441,'design');
#437=PRODUCT_DEFINITION('41130','41130',#438,#436);
#438=PRODUCT_DEFINITION_FORMATION('',$,#443);
#439=PRODUCT_RELATED_PRODUCT_CATEGORY('41130','41130',(#443));
#440=APPLICATION_PROTOCOL_DEFINITION('international standard',
'automotive_design',2009,#441);
#441=APPLICATION_CONTEXT(
'Core Data for Automotive Mechanical Design Process');
#442=PRODUCT_CONTEXT('part definition',#441,'mechanical');
#443=PRODUCT('41130','41130',$,(#442));
#444=PRESENTATION_STYLE_ASSIGNMENT((#445));
#445=SURFACE_STYLE_USAGE(.BOTH.,#448);
#446=SURFACE_STYLE_RENDERING_WITH_PROPERTIES($,#452,(#447));
#447=SURFACE_STYLE_TRANSPARENT(0.);
#448=SURFACE_SIDE_STYLE('',(#449,#446));
#449=SURFACE_STYLE_FILL_AREA(#450);
#450=FILL_AREA_STYLE('',(#451));
#451=FILL_AREA_STYLE_COLOUR('',#452);
#452=COLOUR_RGB('',0.956862745098039,0.956862745098039,0.956862745098039);
ENDSEC;
END-ISO-10303-21;
