ISO-10303-21;
HEADER;
/* Generated by software containing ST-Developer
 * from STEP Tools, Inc. (www.steptools.com) 
 */

FILE_DESCRIPTION(
/* description */ (''),
/* implementation_level */ '2;1');

FILE_NAME(
/* name */ 
'C:\\Users\\O.Boryczka\\Desktop\\Korrigierte Zeichnungen\\H\X\FClsen V
2A\\41141.ipt.step',
/* time_stamp */ '2022-07-18T12:55:09+02:00',
/* author */ ('Abt. Technik'),
/* organization */ (''),
/* preprocessor_version */ 'ST-DEVELOPER v18.1',
/* originating_system */ 'Autodesk Inventor 2022',
/* authorisation */ '');

FILE_SCHEMA (('AUTOMOTIVE_DESIGN { 1 0 10303 214 3 1 1 }'));
ENDSEC;

DATA;
#10=MECHANICAL_DESIGN_GEOMETRIC_PRESENTATION_REPRESENTATION('',(#13),#210);
#11=SHAPE_REPRESENTATION_RELATIONSHIP('SRR','None',#217,#12);
#12=ADVANCED_BREP_SHAPE_REPRESENTATION('',(#14),#209);
#13=STYLED_ITEM('',(#226),#14);
#14=MANIFOLD_SOLID_BREP('Volumenk\X\F6rper1',#75);
#15=LINE('',#204,#17);
#16=LINE('',#206,#18);
#17=VECTOR('',#116,9.);
#18=VECTOR('',#119,10.);
#19=B_SPLINE_CURVE_WITH_KNOTS('',3,(#129,#130,#131,#132,#133,#134,#135,
#136,#137,#138,#139,#140,#141,#142,#143,#144,#145,#146,#147,#148,#149,#150,
#151,#152,#153,#154),.UNSPECIFIED.,.F.,.F.,(4,2,2,2,2,2,2,2,2,2,2,2,4),
(0.,0.383831944197688,0.767663888395376,1.15069232052775,1.53372075266012,
1.91674918479249,2.29977761692486,2.68360956112255,3.06744150532024,3.45127344951793,
3.83510539371562,4.21813382584799,4.60116225798036),.UNSPECIFIED.);
#20=B_SPLINE_CURVE_WITH_KNOTS('',3,(#155,#156,#157,#158,#159,#160,#161,
#162,#163,#164),.UNSPECIFIED.,.F.,.F.,(4,2,2,2,4),(4.60116225798036,4.98419069011273,
5.36721912224511,5.75105106644279,6.13488301064048),.UNSPECIFIED.);
#21=B_SPLINE_CURVE_WITH_KNOTS('',3,(#167,#168,#169,#170,#171,#172,#173,
#174,#175,#176,#177,#178,#179,#180,#181,#182,#183,#184,#185,#186,#187,#188,
#189,#190,#191,#192),.UNSPECIFIED.,.F.,.F.,(4,2,2,2,2,2,2,2,2,2,2,2,4),
(0.,0.344040257747113,0.688080515494226,1.03166957790841,1.37525864032259,
1.71884770273678,2.06243676515096,2.40647702289807,2.75051728064519,3.0945575383923,
3.43859779613941,3.7821868585536,4.12577592096778),.UNSPECIFIED.);
#22=B_SPLINE_CURVE_WITH_KNOTS('',3,(#193,#194,#195,#196,#197,#198,#199,
#200,#201,#202),.UNSPECIFIED.,.F.,.F.,(4,2,2,2,4),(4.12577592096778,4.46936498338196,
4.81295404579615,5.15699430354326,5.50103456129037),.UNSPECIFIED.);
#23=CYLINDRICAL_SURFACE('',#101,21.2);
#24=CYLINDRICAL_SURFACE('',#102,9.);
#25=CYLINDRICAL_SURFACE('',#103,10.);
#26=FACE_BOUND('',#33,.T.);
#27=FACE_BOUND('',#35,.T.);
#28=FACE_OUTER_BOUND('',#32,.T.);
#29=FACE_OUTER_BOUND('',#34,.T.);
#30=FACE_OUTER_BOUND('',#36,.T.);
#31=FACE_OUTER_BOUND('',#37,.T.);
#32=EDGE_LOOP('',(#54));
#33=EDGE_LOOP('',(#55));
#34=EDGE_LOOP('',(#56,#57));
#35=EDGE_LOOP('',(#58,#59));
#36=EDGE_LOOP('',(#60,#61,#62,#63,#64));
#37=EDGE_LOOP('',(#65,#66,#67,#68,#69));
#38=CIRCLE('',#99,10.);
#39=CIRCLE('',#100,9.);
#40=VERTEX_POINT('',#122);
#41=VERTEX_POINT('',#124);
#42=VERTEX_POINT('',#127);
#43=VERTEX_POINT('',#128);
#44=VERTEX_POINT('',#165);
#45=VERTEX_POINT('',#166);
#46=EDGE_CURVE('',#40,#40,#38,.T.);
#47=EDGE_CURVE('',#41,#41,#39,.T.);
#48=EDGE_CURVE('',#42,#43,#19,.T.);
#49=EDGE_CURVE('',#43,#42,#20,.T.);
#50=EDGE_CURVE('',#44,#45,#21,.T.);
#51=EDGE_CURVE('',#45,#44,#22,.T.);
#52=EDGE_CURVE('',#45,#41,#15,.T.);
#53=EDGE_CURVE('',#43,#40,#16,.T.);
#54=ORIENTED_EDGE('',*,*,#46,.T.);
#55=ORIENTED_EDGE('',*,*,#47,.T.);
#56=ORIENTED_EDGE('',*,*,#48,.F.);
#57=ORIENTED_EDGE('',*,*,#49,.F.);
#58=ORIENTED_EDGE('',*,*,#50,.F.);
#59=ORIENTED_EDGE('',*,*,#51,.F.);
#60=ORIENTED_EDGE('',*,*,#50,.T.);
#61=ORIENTED_EDGE('',*,*,#52,.T.);
#62=ORIENTED_EDGE('',*,*,#47,.F.);
#63=ORIENTED_EDGE('',*,*,#52,.F.);
#64=ORIENTED_EDGE('',*,*,#51,.T.);
#65=ORIENTED_EDGE('',*,*,#48,.T.);
#66=ORIENTED_EDGE('',*,*,#53,.T.);
#67=ORIENTED_EDGE('',*,*,#46,.F.);
#68=ORIENTED_EDGE('',*,*,#53,.F.);
#69=ORIENTED_EDGE('',*,*,#49,.T.);
#70=PLANE('',#98);
#71=ADVANCED_FACE('',(#28,#26),#70,.T.);
#72=ADVANCED_FACE('',(#29,#27),#23,.F.);
#73=ADVANCED_FACE('',(#30),#24,.F.);
#74=ADVANCED_FACE('',(#31),#25,.T.);
#75=CLOSED_SHELL('',(#71,#72,#73,#74));
#76=DERIVED_UNIT_ELEMENT(#79,1.);
#77=DERIVED_UNIT_ELEMENT(#212,-3.);
#78=DIMENSIONAL_EXPONENTS(1.,0.,0.,0.,0.,0.,0.);
#79=(
CONVERSION_BASED_UNIT('gram',#81)
MASS_UNIT()
NAMED_UNIT(#78)
);
#80=(
MASS_UNIT()
NAMED_UNIT(*)
SI_UNIT(.KILO.,.GRAM.)
);
#81=MASS_MEASURE_WITH_UNIT(MASS_MEASURE(0.001),#80);
#82=DERIVED_UNIT((#76,#77));
#83=MEASURE_REPRESENTATION_ITEM('density measure',
POSITIVE_RATIO_MEASURE(8.),#82);
#84=PROPERTY_DEFINITION_REPRESENTATION(#89,#86);
#85=PROPERTY_DEFINITION_REPRESENTATION(#90,#87);
#86=REPRESENTATION('material name',(#88),#209);
#87=REPRESENTATION('density',(#83),#209);
#88=DESCRIPTIVE_REPRESENTATION_ITEM('Edelstahl AISI 304',
'Edelstahl AISI 304');
#89=PROPERTY_DEFINITION('material property','material name',#219);
#90=PROPERTY_DEFINITION('material property','density of part',#219);
#91=DATE_TIME_ROLE('creation_date');
#92=APPLIED_DATE_AND_TIME_ASSIGNMENT(#93,#91,(#219));
#93=DATE_AND_TIME(#94,#95);
#94=CALENDAR_DATE(2021,10,6);
#95=LOCAL_TIME(0,0,0.,#96);
#96=COORDINATED_UNIVERSAL_TIME_OFFSET(0,0,.BEHIND.);
#97=AXIS2_PLACEMENT_3D('placement',#120,#104,#105);
#98=AXIS2_PLACEMENT_3D('',#121,#106,#107);
#99=AXIS2_PLACEMENT_3D('',#123,#108,#109);
#100=AXIS2_PLACEMENT_3D('',#125,#110,#111);
#101=AXIS2_PLACEMENT_3D('',#126,#112,#113);
#102=AXIS2_PLACEMENT_3D('',#203,#114,#115);
#103=AXIS2_PLACEMENT_3D('',#205,#117,#118);
#104=DIRECTION('axis',(0.,0.,1.));
#105=DIRECTION('refdir',(1.,0.,0.));
#106=DIRECTION('center_axis',(0.,-1.,0.));
#107=DIRECTION('ref_axis',(0.,0.,-1.));
#108=DIRECTION('center_axis',(0.,-1.,0.));
#109=DIRECTION('ref_axis',(1.,0.,0.));
#110=DIRECTION('center_axis',(0.,1.,0.));
#111=DIRECTION('ref_axis',(-1.,0.,0.));
#112=DIRECTION('center_axis',(1.,0.,0.));
#113=DIRECTION('ref_axis',(0.,-1.,1.22464679914735E-16));
#114=DIRECTION('center_axis',(0.,1.,0.));
#115=DIRECTION('ref_axis',(1.,0.,0.));
#116=DIRECTION('',(0.,-1.,0.));
#117=DIRECTION('center_axis',(0.,1.,0.));
#118=DIRECTION('ref_axis',(-1.,0.,0.));
#119=DIRECTION('',(0.,-1.,0.));
#120=CARTESIAN_POINT('',(0.,0.,0.));
#121=CARTESIAN_POINT('Origin',(0.,-25.,0.));
#122=CARTESIAN_POINT('',(10.,-25.,0.));
#123=CARTESIAN_POINT('Origin',(0.,-25.,0.));
#124=CARTESIAN_POINT('',(-9.,-25.,1.10218211923262E-15));
#125=CARTESIAN_POINT('Origin',(0.,-25.,0.));
#126=CARTESIAN_POINT('Origin',(0.,41.2,0.));
#127=CARTESIAN_POINT('',(-8.32667268468867E-16,22.5066856871233,10.));
#128=CARTESIAN_POINT('',(10.,20.,-1.16743491188625E-15));
#129=CARTESIAN_POINT('Ctrl Pts',(-8.32667268468867E-16,22.5066856871233,
10.));
#130=CARTESIAN_POINT('Ctrl Pts',(-1.27943981399229,22.5066856871233,10.));
#131=CARTESIAN_POINT('Ctrl Pts',(-2.6269154299164,22.3613584734299,9.74013684639862));
#132=CARTESIAN_POINT('Ctrl Pts',(-5.08277152211493,21.8653619595897,8.71415065276743));
#133=CARTESIAN_POINT('Ctrl Pts',(-6.19341552890912,21.5245192800271,7.94872009482184));
#134=CARTESIAN_POINT('Ctrl Pts',(-7.94688282148081,20.904140556238,6.19525280225014));
#135=CARTESIAN_POINT('Ctrl Pts',(-8.71367617684491,20.58068616895,5.08396485486439));
#136=CARTESIAN_POINT('Ctrl Pts',(-9.74074587411995,20.1260806482524,2.62540001942094));
#137=CARTESIAN_POINT('Ctrl Pts',(-10.,20.,1.27676144044124));
#138=CARTESIAN_POINT('Ctrl Pts',(-10.,20.,-1.27676144044124));
#139=CARTESIAN_POINT('Ctrl Pts',(-9.74074587411995,20.1260806482524,-2.62540001942094));
#140=CARTESIAN_POINT('Ctrl Pts',(-8.71367617684491,20.58068616895,-5.0839648548644));
#141=CARTESIAN_POINT('Ctrl Pts',(-7.94688282148081,20.904140556238,-6.19525280225014));
#142=CARTESIAN_POINT('Ctrl Pts',(-6.19341552890912,21.5245192800271,-7.94872009482184));
#143=CARTESIAN_POINT('Ctrl Pts',(-5.08277152211493,21.8653619595897,-8.71415065276743));
#144=CARTESIAN_POINT('Ctrl Pts',(-2.6269154299164,22.3613584734299,-9.74013684639862));
#145=CARTESIAN_POINT('Ctrl Pts',(-1.27943981399229,22.5066856871233,-10.));
#146=CARTESIAN_POINT('Ctrl Pts',(1.27943981399229,22.5066856871233,-10.));
#147=CARTESIAN_POINT('Ctrl Pts',(2.6269154299164,22.3613584734299,-9.74013684639862));
#148=CARTESIAN_POINT('Ctrl Pts',(5.08277152211493,21.8653619595897,-8.71415065276743));
#149=CARTESIAN_POINT('Ctrl Pts',(6.19341552890912,21.5245192800271,-7.94872009482184));
#150=CARTESIAN_POINT('Ctrl Pts',(7.94688282148081,20.904140556238,-6.19525280225014));
#151=CARTESIAN_POINT('Ctrl Pts',(8.71367617684491,20.58068616895,-5.08396485486439));
#152=CARTESIAN_POINT('Ctrl Pts',(9.74074587411995,20.1260806482524,-2.62540001942093));
#153=CARTESIAN_POINT('Ctrl Pts',(10.,20.,-1.27676144044124));
#154=CARTESIAN_POINT('Ctrl Pts',(10.,20.,-8.32667268468867E-16));
#155=CARTESIAN_POINT('Ctrl Pts',(10.,20.,-1.11022302462516E-15));
#156=CARTESIAN_POINT('Ctrl Pts',(10.,20.,1.27676144044124));
#157=CARTESIAN_POINT('Ctrl Pts',(9.74074587411995,20.1260806482524,2.62540001942093));
#158=CARTESIAN_POINT('Ctrl Pts',(8.71367617684492,20.58068616895,5.08396485486439));
#159=CARTESIAN_POINT('Ctrl Pts',(7.94688282148082,20.904140556238,6.19525280225014));
#160=CARTESIAN_POINT('Ctrl Pts',(6.19341552890912,21.5245192800271,7.94872009482184));
#161=CARTESIAN_POINT('Ctrl Pts',(5.08277152211493,21.8653619595897,8.71415065276743));
#162=CARTESIAN_POINT('Ctrl Pts',(2.6269154299164,22.3613584734299,9.74013684639862));
#163=CARTESIAN_POINT('Ctrl Pts',(1.27943981399229,22.5066856871233,10.));
#164=CARTESIAN_POINT('Ctrl Pts',(8.32667268468867E-16,22.5066856871233,
10.));
#165=CARTESIAN_POINT('',(8.32667268468867E-16,22.0052090399505,9.));
#166=CARTESIAN_POINT('',(-9.,20.,-4.02045269626931E-18));
#167=CARTESIAN_POINT('Ctrl Pts',(0.,22.0052090399505,9.));
#168=CARTESIAN_POINT('Ctrl Pts',(1.14680085915704,22.0052090399505,9.));
#169=CARTESIAN_POINT('Ctrl Pts',(2.35825136299484,21.8915384600195,8.76782056821923));
#170=CARTESIAN_POINT('Ctrl Pts',(4.57028444734942,21.4986600988618,7.84528845823565));
#171=CARTESIAN_POINT('Ctrl Pts',(5.57241165463187,21.2268361891492,7.15551040672598));
#172=CARTESIAN_POINT('Ctrl Pts',(7.15447232069909,20.7289605828153,5.57344974065876));
#173=CARTESIAN_POINT('Ctrl Pts',(7.84503230793655,20.4682588225719,4.5709386549994));
#174=CARTESIAN_POINT('Ctrl Pts',(8.76817001826123,20.1016265286349,2.35737343878058));
#175=CARTESIAN_POINT('Ctrl Pts',(9.,20.,1.14529687471395));
#176=CARTESIAN_POINT('Ctrl Pts',(9.,20.,-1.14529687471395));
#177=CARTESIAN_POINT('Ctrl Pts',(8.76817001826123,20.1016265286349,-2.35737343878058));
#178=CARTESIAN_POINT('Ctrl Pts',(7.84503230793655,20.4682588225719,-4.5709386549994));
#179=CARTESIAN_POINT('Ctrl Pts',(7.15447232069909,20.7289605828153,-5.57344974065876));
#180=CARTESIAN_POINT('Ctrl Pts',(5.57241165463187,21.2268361891492,-7.15551040672598));
#181=CARTESIAN_POINT('Ctrl Pts',(4.57028444734943,21.4986600988618,-7.84528845823565));
#182=CARTESIAN_POINT('Ctrl Pts',(2.35825136299484,21.8915384600195,-8.76782056821923));
#183=CARTESIAN_POINT('Ctrl Pts',(1.14680085915704,22.0052090399505,-9.));
#184=CARTESIAN_POINT('Ctrl Pts',(-1.14680085915704,22.0052090399505,-9.));
#185=CARTESIAN_POINT('Ctrl Pts',(-2.35825136299484,21.8915384600195,-8.76782056821923));
#186=CARTESIAN_POINT('Ctrl Pts',(-4.57028444734942,21.4986600988618,-7.84528845823565));
#187=CARTESIAN_POINT('Ctrl Pts',(-5.57241165463187,21.2268361891492,-7.15551040672598));
#188=CARTESIAN_POINT('Ctrl Pts',(-7.15447232069909,20.7289605828153,-5.57344974065876));
#189=CARTESIAN_POINT('Ctrl Pts',(-7.84503230793655,20.4682588225719,-4.5709386549994));
#190=CARTESIAN_POINT('Ctrl Pts',(-8.76817001826123,20.1016265286349,-2.35737343878058));
#191=CARTESIAN_POINT('Ctrl Pts',(-9.,20.,-1.14529687471395));
#192=CARTESIAN_POINT('Ctrl Pts',(-9.,20.,-5.55111512312578E-16));
#193=CARTESIAN_POINT('Ctrl Pts',(-9.,20.,-1.11022302462516E-15));
#194=CARTESIAN_POINT('Ctrl Pts',(-9.,20.,1.14529687471394));
#195=CARTESIAN_POINT('Ctrl Pts',(-8.76817001826123,20.1016265286349,2.35737343878058));
#196=CARTESIAN_POINT('Ctrl Pts',(-7.84503230793655,20.4682588225719,4.5709386549994));
#197=CARTESIAN_POINT('Ctrl Pts',(-7.15447232069909,20.7289605828153,5.57344974065876));
#198=CARTESIAN_POINT('Ctrl Pts',(-5.57241165463187,21.2268361891492,7.15551040672598));
#199=CARTESIAN_POINT('Ctrl Pts',(-4.57028444734942,21.4986600988618,7.84528845823565));
#200=CARTESIAN_POINT('Ctrl Pts',(-2.35825136299484,21.8915384600195,8.76782056821923));
#201=CARTESIAN_POINT('Ctrl Pts',(-1.14680085915704,22.0052090399504,9.));
#202=CARTESIAN_POINT('Ctrl Pts',(2.77555756156289E-16,22.0052090399504,
9.));
#203=CARTESIAN_POINT('Origin',(0.,0.,0.));
#204=CARTESIAN_POINT('',(-9.,0.,1.10218211923262E-15));
#205=CARTESIAN_POINT('Origin',(0.,0.,0.));
#206=CARTESIAN_POINT('',(10.,0.,-1.22464679914735E-15));
#207=UNCERTAINTY_MEASURE_WITH_UNIT(LENGTH_MEASURE(0.01),#211,
'DISTANCE_ACCURACY_VALUE',
'Maximum model space distance between geometric entities at asserted c
onnectivities');
#208=UNCERTAINTY_MEASURE_WITH_UNIT(LENGTH_MEASURE(0.01),#211,
'DISTANCE_ACCURACY_VALUE',
'Maximum model space distance between geometric entities at asserted c
onnectivities');
#209=(
GEOMETRIC_REPRESENTATION_CONTEXT(3)
GLOBAL_UNCERTAINTY_ASSIGNED_CONTEXT((#207))
GLOBAL_UNIT_ASSIGNED_CONTEXT((#211,#213,#214))
REPRESENTATION_CONTEXT('','3D')
);
#210=(
GEOMETRIC_REPRESENTATION_CONTEXT(3)
GLOBAL_UNCERTAINTY_ASSIGNED_CONTEXT((#208))
GLOBAL_UNIT_ASSIGNED_CONTEXT((#211,#213,#214))
REPRESENTATION_CONTEXT('','3D')
);
#211=(
LENGTH_UNIT()
NAMED_UNIT(*)
SI_UNIT(.MILLI.,.METRE.)
);
#212=(
LENGTH_UNIT()
NAMED_UNIT(*)
SI_UNIT(.CENTI.,.METRE.)
);
#213=(
NAMED_UNIT(*)
PLANE_ANGLE_UNIT()
SI_UNIT($,.RADIAN.)
);
#214=(
NAMED_UNIT(*)
SI_UNIT($,.STERADIAN.)
SOLID_ANGLE_UNIT()
);
#215=SHAPE_DEFINITION_REPRESENTATION(#216,#217);
#216=PRODUCT_DEFINITION_SHAPE('',$,#219);
#217=SHAPE_REPRESENTATION('',(#97),#209);
#218=PRODUCT_DEFINITION_CONTEXT('part definition',#223,'design');
#219=PRODUCT_DEFINITION('41141','41141',#220,#218);
#220=PRODUCT_DEFINITION_FORMATION('',$,#225);
#221=PRODUCT_RELATED_PRODUCT_CATEGORY('41141','41141',(#225));
#222=APPLICATION_PROTOCOL_DEFINITION('international standard',
'automotive_design',2009,#223);
#223=APPLICATION_CONTEXT(
'Core Data for Automotive Mechanical Design Process');
#224=PRODUCT_CONTEXT('part definition',#223,'mechanical');
#225=PRODUCT('41141','41141',$,(#224));
#226=PRESENTATION_STYLE_ASSIGNMENT((#227));
#227=SURFACE_STYLE_USAGE(.BOTH.,#230);
#228=SURFACE_STYLE_RENDERING_WITH_PROPERTIES($,#234,(#229));
#229=SURFACE_STYLE_TRANSPARENT(0.);
#230=SURFACE_SIDE_STYLE('',(#231,#228));
#231=SURFACE_STYLE_FILL_AREA(#232);
#232=FILL_AREA_STYLE('',(#233));
#233=FILL_AREA_STYLE_COLOUR('',#234);
#234=COLOUR_RGB('',0.956862745098039,0.956862745098039,0.956862745098039);
ENDSEC;
END-ISO-10303-21;
