ISO-10303-21;
HEADER;
/* Generated by software containing ST-Developer
 * from STEP Tools, Inc. (www.steptools.com) 
 */

FILE_DESCRIPTION(
/* description */ (''),
/* implementation_level */ '2;1');

FILE_NAME(
/* name */ 
'C:\\Users\\O.Boryczka\\Desktop\\Korrigierte Zeichnungen\\Handlauftr\X\E4
gerst\X\FCtze V2A\\IPT_Daten\\41165.ipt.step',
/* time_stamp */ '2022-07-18T12:55:02+02:00',
/* author */ ('Nutzer'),
/* organization */ (''),
/* preprocessor_version */ 'ST-DEVELOPER v18.1',
/* originating_system */ 'Autodesk Inventor 2022',
/* authorisation */ '');

FILE_SCHEMA (('AUTOMOTIVE_DESIGN { 1 0 10303 214 3 1 1 }'));
ENDSEC;

DATA;
#10=MECHANICAL_DESIGN_GEOMETRIC_PRESENTATION_REPRESENTATION('',(#13),#195);
#11=SHAPE_REPRESENTATION_RELATIONSHIP('SRR','None',#202,#12);
#12=ADVANCED_BREP_SHAPE_REPRESENTATION('',(#14),#194);
#13=STYLED_ITEM('',(#211),#14);
#14=MANIFOLD_SOLID_BREP('Volumenk\X\F6rper1',#96);
#15=FACE_BOUND('',#38,.T.);
#16=PLANE('',#131);
#17=PLANE('',#132);
#18=CONICAL_SURFACE('',#125,4.25,0.785398163397449);
#19=LINE('',#176,#22);
#20=LINE('',#182,#23);
#21=LINE('',#188,#24);
#22=VECTOR('',#145,6.);
#23=VECTOR('',#152,4.25);
#24=VECTOR('',#159,3.);
#25=CYLINDRICAL_SURFACE('',#123,6.);
#26=CYLINDRICAL_SURFACE('',#129,3.);
#27=FACE_OUTER_BOUND('',#33,.T.);
#28=FACE_OUTER_BOUND('',#34,.T.);
#29=FACE_OUTER_BOUND('',#35,.T.);
#30=FACE_OUTER_BOUND('',#36,.T.);
#31=FACE_OUTER_BOUND('',#37,.T.);
#32=FACE_OUTER_BOUND('',#39,.T.);
#33=EDGE_LOOP('',(#67,#68,#69,#70));
#34=EDGE_LOOP('',(#71,#72,#73,#74,#75));
#35=EDGE_LOOP('',(#76,#77,#78,#79,#80));
#36=EDGE_LOOP('',(#81,#82,#83,#84,#85));
#37=EDGE_LOOP('',(#86));
#38=EDGE_LOOP('',(#87));
#39=EDGE_LOOP('',(#88));
#40=CIRCLE('',#120,6.);
#41=CIRCLE('',#121,6.);
#42=CIRCLE('',#122,6.);
#43=CIRCLE('',#124,6.);
#44=CIRCLE('',#126,5.5);
#45=CIRCLE('',#127,3.);
#46=CIRCLE('',#128,3.);
#47=CIRCLE('',#130,3.);
#48=VERTEX_POINT('',#168);
#49=VERTEX_POINT('',#169);
#50=VERTEX_POINT('',#171);
#51=VERTEX_POINT('',#175);
#52=VERTEX_POINT('',#179);
#53=VERTEX_POINT('',#181);
#54=VERTEX_POINT('',#183);
#55=VERTEX_POINT('',#187);
#56=EDGE_CURVE('',#48,#49,#40,.T.);
#57=EDGE_CURVE('',#50,#49,#41,.T.);
#58=EDGE_CURVE('',#49,#48,#42,.T.);
#59=EDGE_CURVE('',#48,#51,#19,.T.);
#60=EDGE_CURVE('',#51,#51,#43,.T.);
#61=EDGE_CURVE('',#52,#52,#44,.T.);
#62=EDGE_CURVE('',#52,#53,#20,.T.);
#63=EDGE_CURVE('',#53,#54,#45,.T.);
#64=EDGE_CURVE('',#54,#53,#46,.T.);
#65=EDGE_CURVE('',#54,#55,#21,.T.);
#66=EDGE_CURVE('',#55,#55,#47,.T.);
#67=ORIENTED_EDGE('',*,*,#56,.T.);
#68=ORIENTED_EDGE('',*,*,#57,.F.);
#69=ORIENTED_EDGE('',*,*,#57,.T.);
#70=ORIENTED_EDGE('',*,*,#58,.T.);
#71=ORIENTED_EDGE('',*,*,#56,.F.);
#72=ORIENTED_EDGE('',*,*,#59,.T.);
#73=ORIENTED_EDGE('',*,*,#60,.T.);
#74=ORIENTED_EDGE('',*,*,#59,.F.);
#75=ORIENTED_EDGE('',*,*,#58,.F.);
#76=ORIENTED_EDGE('',*,*,#61,.T.);
#77=ORIENTED_EDGE('',*,*,#62,.T.);
#78=ORIENTED_EDGE('',*,*,#63,.T.);
#79=ORIENTED_EDGE('',*,*,#64,.T.);
#80=ORIENTED_EDGE('',*,*,#62,.F.);
#81=ORIENTED_EDGE('',*,*,#63,.F.);
#82=ORIENTED_EDGE('',*,*,#64,.F.);
#83=ORIENTED_EDGE('',*,*,#65,.T.);
#84=ORIENTED_EDGE('',*,*,#66,.T.);
#85=ORIENTED_EDGE('',*,*,#65,.F.);
#86=ORIENTED_EDGE('',*,*,#60,.F.);
#87=ORIENTED_EDGE('',*,*,#61,.F.);
#88=ORIENTED_EDGE('',*,*,#66,.F.);
#89=SPHERICAL_SURFACE('',#119,6.);
#90=ADVANCED_FACE('',(#27),#89,.T.);
#91=ADVANCED_FACE('',(#28),#25,.T.);
#92=ADVANCED_FACE('',(#29),#18,.F.);
#93=ADVANCED_FACE('',(#30),#26,.F.);
#94=ADVANCED_FACE('',(#31,#15),#16,.F.);
#95=ADVANCED_FACE('',(#32),#17,.T.);
#96=CLOSED_SHELL('',(#90,#91,#92,#93,#94,#95));
#97=DERIVED_UNIT_ELEMENT(#100,1.);
#98=DERIVED_UNIT_ELEMENT(#197,-3.);
#99=DIMENSIONAL_EXPONENTS(1.,0.,0.,0.,0.,0.,0.);
#100=(
CONVERSION_BASED_UNIT('gram',#102)
MASS_UNIT()
NAMED_UNIT(#99)
);
#101=(
MASS_UNIT()
NAMED_UNIT(*)
SI_UNIT(.KILO.,.GRAM.)
);
#102=MASS_MEASURE_WITH_UNIT(MASS_MEASURE(0.001),#101);
#103=DERIVED_UNIT((#97,#98));
#104=MEASURE_REPRESENTATION_ITEM('density measure',
POSITIVE_RATIO_MEASURE(8.),#103);
#105=PROPERTY_DEFINITION_REPRESENTATION(#110,#107);
#106=PROPERTY_DEFINITION_REPRESENTATION(#111,#108);
#107=REPRESENTATION('material name',(#109),#194);
#108=REPRESENTATION('density',(#104),#194);
#109=DESCRIPTIVE_REPRESENTATION_ITEM('Edelstahl AISI 304',
'Edelstahl AISI 304');
#110=PROPERTY_DEFINITION('material property','material name',#204);
#111=PROPERTY_DEFINITION('material property','density of part',#204);
#112=DATE_TIME_ROLE('creation_date');
#113=APPLIED_DATE_AND_TIME_ASSIGNMENT(#114,#112,(#204));
#114=DATE_AND_TIME(#115,#116);
#115=CALENDAR_DATE(2021,21,4);
#116=LOCAL_TIME(0,0,0.,#117);
#117=COORDINATED_UNIVERSAL_TIME_OFFSET(0,0,.BEHIND.);
#118=AXIS2_PLACEMENT_3D('placement',#166,#133,#134);
#119=AXIS2_PLACEMENT_3D('',#167,#135,#136);
#120=AXIS2_PLACEMENT_3D('',#170,#137,#138);
#121=AXIS2_PLACEMENT_3D('',#172,#139,#140);
#122=AXIS2_PLACEMENT_3D('',#173,#141,#142);
#123=AXIS2_PLACEMENT_3D('',#174,#143,#144);
#124=AXIS2_PLACEMENT_3D('',#177,#146,#147);
#125=AXIS2_PLACEMENT_3D('',#178,#148,#149);
#126=AXIS2_PLACEMENT_3D('',#180,#150,#151);
#127=AXIS2_PLACEMENT_3D('',#184,#153,#154);
#128=AXIS2_PLACEMENT_3D('',#185,#155,#156);
#129=AXIS2_PLACEMENT_3D('',#186,#157,#158);
#130=AXIS2_PLACEMENT_3D('',#189,#160,#161);
#131=AXIS2_PLACEMENT_3D('',#190,#162,#163);
#132=AXIS2_PLACEMENT_3D('',#191,#164,#165);
#133=DIRECTION('axis',(0.,0.,1.));
#134=DIRECTION('refdir',(1.,0.,0.));
#135=DIRECTION('center_axis',(0.,1.,-6.12323399573677E-17));
#136=DIRECTION('ref_axis',(0.,0.,-1.));
#137=DIRECTION('center_axis',(0.,1.,0.));
#138=DIRECTION('ref_axis',(-1.,0.,0.));
#139=DIRECTION('center_axis',(1.,0.,-1.22464679914735E-16));
#140=DIRECTION('ref_axis',(1.22464679914735E-16,0.,1.));
#141=DIRECTION('center_axis',(0.,1.,0.));
#142=DIRECTION('ref_axis',(-1.,0.,0.));
#143=DIRECTION('center_axis',(0.,1.,0.));
#144=DIRECTION('ref_axis',(-1.,0.,0.));
#145=DIRECTION('',(0.,-1.,0.));
#146=DIRECTION('center_axis',(0.,1.,0.));
#147=DIRECTION('ref_axis',(-1.,0.,0.));
#148=DIRECTION('center_axis',(0.,-1.,0.));
#149=DIRECTION('ref_axis',(-1.,0.,0.));
#150=DIRECTION('center_axis',(0.,-1.,0.));
#151=DIRECTION('ref_axis',(-1.,0.,0.));
#152=DIRECTION('',(-0.707106781186548,0.707106781186547,-8.65956056235494E-17));
#153=DIRECTION('center_axis',(0.,1.,0.));
#154=DIRECTION('ref_axis',(-1.,0.,0.));
#155=DIRECTION('center_axis',(0.,1.,0.));
#156=DIRECTION('ref_axis',(-1.,0.,0.));
#157=DIRECTION('center_axis',(0.,1.,0.));
#158=DIRECTION('ref_axis',(1.,0.,0.));
#159=DIRECTION('',(0.,1.,0.));
#160=DIRECTION('center_axis',(0.,1.,0.));
#161=DIRECTION('ref_axis',(1.,0.,0.));
#162=DIRECTION('center_axis',(0.,1.,0.));
#163=DIRECTION('ref_axis',(0.,0.,1.));
#164=DIRECTION('center_axis',(0.,-1.,0.));
#165=DIRECTION('ref_axis',(0.,0.,-1.));
#166=CARTESIAN_POINT('',(0.,0.,0.));
#167=CARTESIAN_POINT('Origin',(0.,74.,0.));
#168=CARTESIAN_POINT('',(6.,74.,-7.34788079488412E-16));
#169=CARTESIAN_POINT('',(7.34788079488412E-16,74.,6.));
#170=CARTESIAN_POINT('Origin',(0.,74.,0.));
#171=CARTESIAN_POINT('',(4.49927934798557E-32,80.,3.67394039744206E-16));
#172=CARTESIAN_POINT('Origin',(0.,74.,0.));
#173=CARTESIAN_POINT('Origin',(0.,74.,0.));
#174=CARTESIAN_POINT('Origin',(0.,0.,0.));
#175=CARTESIAN_POINT('',(6.,0.,-7.34788079488412E-16));
#176=CARTESIAN_POINT('',(6.,0.,-7.34788079488412E-16));
#177=CARTESIAN_POINT('Origin',(0.,0.,0.));
#178=CARTESIAN_POINT('Origin',(0.,1.25,0.));
#179=CARTESIAN_POINT('',(5.5,0.,6.73555739531044E-16));
#180=CARTESIAN_POINT('Origin',(0.,0.,0.));
#181=CARTESIAN_POINT('',(3.,2.5,-3.67394039744206E-16));
#182=CARTESIAN_POINT('',(4.25,1.25,5.20474889637625E-16));
#183=CARTESIAN_POINT('',(-3.,2.5,3.67394039744206E-16));
#184=CARTESIAN_POINT('Origin',(0.,2.5,0.));
#185=CARTESIAN_POINT('Origin',(0.,2.5,0.));
#186=CARTESIAN_POINT('Origin',(0.,0.,0.));
#187=CARTESIAN_POINT('',(-3.,17.,3.67394039744206E-16));
#188=CARTESIAN_POINT('',(-3.,0.,3.67394039744206E-16));
#189=CARTESIAN_POINT('Origin',(0.,17.,0.));
#190=CARTESIAN_POINT('Origin',(0.,0.,0.));
#191=CARTESIAN_POINT('Origin',(0.,17.,0.));
#192=UNCERTAINTY_MEASURE_WITH_UNIT(LENGTH_MEASURE(0.01),#196,
'DISTANCE_ACCURACY_VALUE',
'Maximum model space distance between geometric entities at asserted c
onnectivities');
#193=UNCERTAINTY_MEASURE_WITH_UNIT(LENGTH_MEASURE(0.01),#196,
'DISTANCE_ACCURACY_VALUE',
'Maximum model space distance between geometric entities at asserted c
onnectivities');
#194=(
GEOMETRIC_REPRESENTATION_CONTEXT(3)
GLOBAL_UNCERTAINTY_ASSIGNED_CONTEXT((#192))
GLOBAL_UNIT_ASSIGNED_CONTEXT((#196,#198,#199))
REPRESENTATION_CONTEXT('','3D')
);
#195=(
GEOMETRIC_REPRESENTATION_CONTEXT(3)
GLOBAL_UNCERTAINTY_ASSIGNED_CONTEXT((#193))
GLOBAL_UNIT_ASSIGNED_CONTEXT((#196,#198,#199))
REPRESENTATION_CONTEXT('','3D')
);
#196=(
LENGTH_UNIT()
NAMED_UNIT(*)
SI_UNIT(.MILLI.,.METRE.)
);
#197=(
LENGTH_UNIT()
NAMED_UNIT(*)
SI_UNIT(.CENTI.,.METRE.)
);
#198=(
NAMED_UNIT(*)
PLANE_ANGLE_UNIT()
SI_UNIT($,.RADIAN.)
);
#199=(
NAMED_UNIT(*)
SI_UNIT($,.STERADIAN.)
SOLID_ANGLE_UNIT()
);
#200=SHAPE_DEFINITION_REPRESENTATION(#201,#202);
#201=PRODUCT_DEFINITION_SHAPE('',$,#204);
#202=SHAPE_REPRESENTATION('',(#118),#194);
#203=PRODUCT_DEFINITION_CONTEXT('part definition',#208,'design');
#204=PRODUCT_DEFINITION('41165','41165',#205,#203);
#205=PRODUCT_DEFINITION_FORMATION('',$,#210);
#206=PRODUCT_RELATED_PRODUCT_CATEGORY('41165','41165',(#210));
#207=APPLICATION_PROTOCOL_DEFINITION('international standard',
'automotive_design',2009,#208);
#208=APPLICATION_CONTEXT(
'Core Data for Automotive Mechanical Design Process');
#209=PRODUCT_CONTEXT('part definition',#208,'mechanical');
#210=PRODUCT('41165','41165',$,(#209));
#211=PRESENTATION_STYLE_ASSIGNMENT((#212));
#212=SURFACE_STYLE_USAGE(.BOTH.,#215);
#213=SURFACE_STYLE_RENDERING_WITH_PROPERTIES($,#219,(#214));
#214=SURFACE_STYLE_TRANSPARENT(0.);
#215=SURFACE_SIDE_STYLE('',(#216,#213));
#216=SURFACE_STYLE_FILL_AREA(#217);
#217=FILL_AREA_STYLE('',(#218));
#218=FILL_AREA_STYLE_COLOUR('',#219);
#219=COLOUR_RGB('',0.956862745098039,0.956862745098039,0.956862745098039);
ENDSEC;
END-ISO-10303-21;
