ISO-10303-21;
HEADER;
/* Generated by software containing ST-Developer
 * from STEP Tools, Inc. (www.steptools.com) 
 */

FILE_DESCRIPTION(
/* description */ (''),
/* implementation_level */ '2;1');

FILE_NAME(
/* name */ 
'C:\\Users\\O.Boryczka\\Desktop\\Korrigierte Zeichnungen\\Wandankerpla
tten V2A\\41172.ipt.step',
/* time_stamp */ '2022-07-18T12:58:45+02:00',
/* author */ ('Abt. Technik'),
/* organization */ (''),
/* preprocessor_version */ 'ST-DEVELOPER v18.1',
/* originating_system */ 'Autodesk Inventor 2022',
/* authorisation */ '');

FILE_SCHEMA (('AUTOMOTIVE_DESIGN { 1 0 10303 214 3 1 1 }'));
ENDSEC;

DATA;
#10=MECHANICAL_DESIGN_GEOMETRIC_PRESENTATION_REPRESENTATION('',(#13),#488);
#11=SHAPE_REPRESENTATION_RELATIONSHIP('SRR','None',#495,#12);
#12=ADVANCED_BREP_SHAPE_REPRESENTATION('',(#14),#487);
#13=STYLED_ITEM('',(#504),#14);
#14=MANIFOLD_SOLID_BREP('Volumenk\X\F6rper1',#277);
#15=FACE_BOUND('',#59,.T.);
#16=FACE_BOUND('',#62,.T.);
#17=FACE_BOUND('',#72,.T.);
#18=FACE_BOUND('',#73,.T.);
#19=FACE_BOUND('',#74,.T.);
#20=FACE_BOUND('',#75,.T.);
#21=FACE_BOUND('',#77,.T.);
#22=FACE_BOUND('',#78,.T.);
#23=FACE_BOUND('',#79,.T.);
#24=FACE_BOUND('',#80,.T.);
#25=PLANE('',#309);
#26=PLANE('',#314);
#27=PLANE('',#324);
#28=PLANE('',#325);
#29=PLANE('',#326);
#30=PLANE('',#327);
#31=PLANE('',#328);
#32=PLANE('',#329);
#33=CYLINDRICAL_SURFACE('',#306,10.25);
#34=CYLINDRICAL_SURFACE('',#311,10.25);
#35=CYLINDRICAL_SURFACE('',#316,5.25);
#36=CYLINDRICAL_SURFACE('',#317,5.25);
#37=CYLINDRICAL_SURFACE('',#320,5.25);
#38=CYLINDRICAL_SURFACE('',#321,5.25);
#39=FACE_OUTER_BOUND('',#55,.T.);
#40=FACE_OUTER_BOUND('',#56,.T.);
#41=FACE_OUTER_BOUND('',#57,.T.);
#42=FACE_OUTER_BOUND('',#58,.T.);
#43=FACE_OUTER_BOUND('',#60,.T.);
#44=FACE_OUTER_BOUND('',#61,.T.);
#45=FACE_OUTER_BOUND('',#63,.T.);
#46=FACE_OUTER_BOUND('',#64,.T.);
#47=FACE_OUTER_BOUND('',#65,.T.);
#48=FACE_OUTER_BOUND('',#66,.T.);
#49=FACE_OUTER_BOUND('',#67,.T.);
#50=FACE_OUTER_BOUND('',#68,.T.);
#51=FACE_OUTER_BOUND('',#69,.T.);
#52=FACE_OUTER_BOUND('',#70,.T.);
#53=FACE_OUTER_BOUND('',#71,.T.);
#54=FACE_OUTER_BOUND('',#76,.T.);
#55=EDGE_LOOP('',(#191,#192,#193,#194));
#56=EDGE_LOOP('',(#195,#196,#197,#198));
#57=EDGE_LOOP('',(#199,#200,#201,#202));
#58=EDGE_LOOP('',(#203));
#59=EDGE_LOOP('',(#204));
#60=EDGE_LOOP('',(#205,#206,#207,#208));
#61=EDGE_LOOP('',(#209));
#62=EDGE_LOOP('',(#210));
#63=EDGE_LOOP('',(#211,#212,#213,#214));
#64=EDGE_LOOP('',(#215,#216,#217,#218));
#65=EDGE_LOOP('',(#219,#220,#221,#222));
#66=EDGE_LOOP('',(#223,#224,#225,#226));
#67=EDGE_LOOP('',(#227,#228,#229,#230));
#68=EDGE_LOOP('',(#231,#232,#233,#234));
#69=EDGE_LOOP('',(#235,#236,#237,#238));
#70=EDGE_LOOP('',(#239,#240,#241,#242));
#71=EDGE_LOOP('',(#243,#244,#245,#246));
#72=EDGE_LOOP('',(#247));
#73=EDGE_LOOP('',(#248));
#74=EDGE_LOOP('',(#249));
#75=EDGE_LOOP('',(#250));
#76=EDGE_LOOP('',(#251,#252,#253,#254));
#77=EDGE_LOOP('',(#255));
#78=EDGE_LOOP('',(#256));
#79=EDGE_LOOP('',(#257));
#80=EDGE_LOOP('',(#258));
#81=LINE('',#417,#101);
#82=LINE('',#423,#102);
#83=LINE('',#429,#103);
#84=LINE('',#438,#104);
#85=LINE('',#444,#105);
#86=LINE('',#449,#106);
#87=LINE('',#452,#107);
#88=LINE('',#457,#108);
#89=LINE('',#462,#109);
#90=LINE('',#464,#110);
#91=LINE('',#466,#111);
#92=LINE('',#467,#112);
#93=LINE('',#470,#113);
#94=LINE('',#472,#114);
#95=LINE('',#473,#115);
#96=LINE('',#476,#116);
#97=LINE('',#478,#117);
#98=LINE('',#479,#118);
#99=LINE('',#481,#119);
#100=LINE('',#482,#120);
#101=VECTOR('',#336,7.75);
#102=VECTOR('',#343,7.75);
#103=VECTOR('',#350,10.25);
#104=VECTOR('',#361,10.25);
#105=VECTOR('',#370,5.25);
#106=VECTOR('',#375,5.25);
#107=VECTOR('',#380,5.25);
#108=VECTOR('',#385,5.25);
#109=VECTOR('',#390,10.);
#110=VECTOR('',#391,10.);
#111=VECTOR('',#392,10.);
#112=VECTOR('',#393,10.);
#113=VECTOR('',#396,10.);
#114=VECTOR('',#397,10.);
#115=VECTOR('',#398,10.);
#116=VECTOR('',#401,10.);
#117=VECTOR('',#402,10.);
#118=VECTOR('',#403,10.);
#119=VECTOR('',#406,10.);
#120=VECTOR('',#407,10.);
#121=CIRCLE('',#301,10.25);
#122=CIRCLE('',#302,5.25);
#123=CIRCLE('',#304,10.25);
#124=CIRCLE('',#305,5.25);
#125=CIRCLE('',#307,10.25);
#126=CIRCLE('',#308,10.25);
#127=CIRCLE('',#310,5.25);
#128=CIRCLE('',#312,10.25);
#129=CIRCLE('',#313,10.25);
#130=CIRCLE('',#315,5.25);
#131=CIRCLE('',#318,5.25);
#132=CIRCLE('',#319,5.25);
#133=CIRCLE('',#322,5.25);
#134=CIRCLE('',#323,5.25);
#135=VERTEX_POINT('',#414);
#136=VERTEX_POINT('',#416);
#137=VERTEX_POINT('',#420);
#138=VERTEX_POINT('',#422);
#139=VERTEX_POINT('',#426);
#140=VERTEX_POINT('',#428);
#141=VERTEX_POINT('',#432);
#142=VERTEX_POINT('',#435);
#143=VERTEX_POINT('',#437);
#144=VERTEX_POINT('',#441);
#145=VERTEX_POINT('',#446);
#146=VERTEX_POINT('',#448);
#147=VERTEX_POINT('',#454);
#148=VERTEX_POINT('',#456);
#149=VERTEX_POINT('',#460);
#150=VERTEX_POINT('',#461);
#151=VERTEX_POINT('',#463);
#152=VERTEX_POINT('',#465);
#153=VERTEX_POINT('',#469);
#154=VERTEX_POINT('',#471);
#155=VERTEX_POINT('',#475);
#156=VERTEX_POINT('',#477);
#157=EDGE_CURVE('',#135,#135,#121,.T.);
#158=EDGE_CURVE('',#135,#136,#81,.T.);
#159=EDGE_CURVE('',#136,#136,#122,.T.);
#160=EDGE_CURVE('',#137,#137,#123,.T.);
#161=EDGE_CURVE('',#137,#138,#82,.T.);
#162=EDGE_CURVE('',#138,#138,#124,.T.);
#163=EDGE_CURVE('',#139,#139,#125,.T.);
#164=EDGE_CURVE('',#139,#140,#83,.T.);
#165=EDGE_CURVE('',#140,#140,#126,.T.);
#166=EDGE_CURVE('',#141,#141,#127,.T.);
#167=EDGE_CURVE('',#142,#142,#128,.T.);
#168=EDGE_CURVE('',#142,#143,#84,.T.);
#169=EDGE_CURVE('',#143,#143,#129,.T.);
#170=EDGE_CURVE('',#144,#144,#130,.T.);
#171=EDGE_CURVE('',#141,#138,#85,.T.);
#172=EDGE_CURVE('',#145,#145,#131,.T.);
#173=EDGE_CURVE('',#145,#146,#86,.T.);
#174=EDGE_CURVE('',#146,#146,#132,.T.);
#175=EDGE_CURVE('',#144,#136,#87,.T.);
#176=EDGE_CURVE('',#147,#147,#133,.T.);
#177=EDGE_CURVE('',#147,#148,#88,.T.);
#178=EDGE_CURVE('',#148,#148,#134,.T.);
#179=EDGE_CURVE('',#149,#150,#89,.T.);
#180=EDGE_CURVE('',#150,#151,#90,.T.);
#181=EDGE_CURVE('',#152,#151,#91,.T.);
#182=EDGE_CURVE('',#149,#152,#92,.T.);
#183=EDGE_CURVE('',#153,#149,#93,.T.);
#184=EDGE_CURVE('',#154,#152,#94,.T.);
#185=EDGE_CURVE('',#153,#154,#95,.T.);
#186=EDGE_CURVE('',#155,#153,#96,.T.);
#187=EDGE_CURVE('',#156,#154,#97,.T.);
#188=EDGE_CURVE('',#155,#156,#98,.T.);
#189=EDGE_CURVE('',#150,#155,#99,.T.);
#190=EDGE_CURVE('',#151,#156,#100,.T.);
#191=ORIENTED_EDGE('',*,*,#157,.F.);
#192=ORIENTED_EDGE('',*,*,#158,.T.);
#193=ORIENTED_EDGE('',*,*,#159,.F.);
#194=ORIENTED_EDGE('',*,*,#158,.F.);
#195=ORIENTED_EDGE('',*,*,#160,.F.);
#196=ORIENTED_EDGE('',*,*,#161,.T.);
#197=ORIENTED_EDGE('',*,*,#162,.F.);
#198=ORIENTED_EDGE('',*,*,#161,.F.);
#199=ORIENTED_EDGE('',*,*,#163,.F.);
#200=ORIENTED_EDGE('',*,*,#164,.T.);
#201=ORIENTED_EDGE('',*,*,#165,.T.);
#202=ORIENTED_EDGE('',*,*,#164,.F.);
#203=ORIENTED_EDGE('',*,*,#165,.F.);
#204=ORIENTED_EDGE('',*,*,#166,.F.);
#205=ORIENTED_EDGE('',*,*,#167,.F.);
#206=ORIENTED_EDGE('',*,*,#168,.T.);
#207=ORIENTED_EDGE('',*,*,#169,.T.);
#208=ORIENTED_EDGE('',*,*,#168,.F.);
#209=ORIENTED_EDGE('',*,*,#169,.F.);
#210=ORIENTED_EDGE('',*,*,#170,.F.);
#211=ORIENTED_EDGE('',*,*,#166,.T.);
#212=ORIENTED_EDGE('',*,*,#171,.T.);
#213=ORIENTED_EDGE('',*,*,#162,.T.);
#214=ORIENTED_EDGE('',*,*,#171,.F.);
#215=ORIENTED_EDGE('',*,*,#172,.F.);
#216=ORIENTED_EDGE('',*,*,#173,.T.);
#217=ORIENTED_EDGE('',*,*,#174,.T.);
#218=ORIENTED_EDGE('',*,*,#173,.F.);
#219=ORIENTED_EDGE('',*,*,#170,.T.);
#220=ORIENTED_EDGE('',*,*,#175,.T.);
#221=ORIENTED_EDGE('',*,*,#159,.T.);
#222=ORIENTED_EDGE('',*,*,#175,.F.);
#223=ORIENTED_EDGE('',*,*,#176,.F.);
#224=ORIENTED_EDGE('',*,*,#177,.T.);
#225=ORIENTED_EDGE('',*,*,#178,.T.);
#226=ORIENTED_EDGE('',*,*,#177,.F.);
#227=ORIENTED_EDGE('',*,*,#179,.T.);
#228=ORIENTED_EDGE('',*,*,#180,.T.);
#229=ORIENTED_EDGE('',*,*,#181,.F.);
#230=ORIENTED_EDGE('',*,*,#182,.F.);
#231=ORIENTED_EDGE('',*,*,#183,.T.);
#232=ORIENTED_EDGE('',*,*,#182,.T.);
#233=ORIENTED_EDGE('',*,*,#184,.F.);
#234=ORIENTED_EDGE('',*,*,#185,.F.);
#235=ORIENTED_EDGE('',*,*,#186,.T.);
#236=ORIENTED_EDGE('',*,*,#185,.T.);
#237=ORIENTED_EDGE('',*,*,#187,.F.);
#238=ORIENTED_EDGE('',*,*,#188,.F.);
#239=ORIENTED_EDGE('',*,*,#189,.T.);
#240=ORIENTED_EDGE('',*,*,#188,.T.);
#241=ORIENTED_EDGE('',*,*,#190,.F.);
#242=ORIENTED_EDGE('',*,*,#180,.F.);
#243=ORIENTED_EDGE('',*,*,#190,.T.);
#244=ORIENTED_EDGE('',*,*,#187,.T.);
#245=ORIENTED_EDGE('',*,*,#184,.T.);
#246=ORIENTED_EDGE('',*,*,#181,.T.);
#247=ORIENTED_EDGE('',*,*,#163,.T.);
#248=ORIENTED_EDGE('',*,*,#167,.T.);
#249=ORIENTED_EDGE('',*,*,#176,.T.);
#250=ORIENTED_EDGE('',*,*,#172,.T.);
#251=ORIENTED_EDGE('',*,*,#189,.F.);
#252=ORIENTED_EDGE('',*,*,#179,.F.);
#253=ORIENTED_EDGE('',*,*,#183,.F.);
#254=ORIENTED_EDGE('',*,*,#186,.F.);
#255=ORIENTED_EDGE('',*,*,#157,.T.);
#256=ORIENTED_EDGE('',*,*,#160,.T.);
#257=ORIENTED_EDGE('',*,*,#178,.F.);
#258=ORIENTED_EDGE('',*,*,#174,.F.);
#259=CONICAL_SURFACE('',#300,7.75,0.785398163397448);
#260=CONICAL_SURFACE('',#303,7.75,0.785398163397448);
#261=ADVANCED_FACE('',(#39),#259,.F.);
#262=ADVANCED_FACE('',(#40),#260,.F.);
#263=ADVANCED_FACE('',(#41),#33,.F.);
#264=ADVANCED_FACE('',(#42,#15),#25,.T.);
#265=ADVANCED_FACE('',(#43),#34,.F.);
#266=ADVANCED_FACE('',(#44,#16),#26,.T.);
#267=ADVANCED_FACE('',(#45),#35,.F.);
#268=ADVANCED_FACE('',(#46),#36,.F.);
#269=ADVANCED_FACE('',(#47),#37,.F.);
#270=ADVANCED_FACE('',(#48),#38,.F.);
#271=ADVANCED_FACE('',(#49),#27,.T.);
#272=ADVANCED_FACE('',(#50),#28,.T.);
#273=ADVANCED_FACE('',(#51),#29,.T.);
#274=ADVANCED_FACE('',(#52),#30,.T.);
#275=ADVANCED_FACE('',(#53,#17,#18,#19,#20),#31,.T.);
#276=ADVANCED_FACE('',(#54,#21,#22,#23,#24),#32,.F.);
#277=CLOSED_SHELL('',(#261,#262,#263,#264,#265,#266,#267,#268,#269,#270,
#271,#272,#273,#274,#275,#276));
#278=DERIVED_UNIT_ELEMENT(#281,1.);
#279=DERIVED_UNIT_ELEMENT(#490,-3.);
#280=DIMENSIONAL_EXPONENTS(1.,0.,0.,0.,0.,0.,0.);
#281=(
CONVERSION_BASED_UNIT('gram',#283)
MASS_UNIT()
NAMED_UNIT(#280)
);
#282=(
MASS_UNIT()
NAMED_UNIT(*)
SI_UNIT(.KILO.,.GRAM.)
);
#283=MASS_MEASURE_WITH_UNIT(MASS_MEASURE(0.001),#282);
#284=DERIVED_UNIT((#278,#279));
#285=MEASURE_REPRESENTATION_ITEM('density measure',
POSITIVE_RATIO_MEASURE(8.),#284);
#286=PROPERTY_DEFINITION_REPRESENTATION(#291,#288);
#287=PROPERTY_DEFINITION_REPRESENTATION(#292,#289);
#288=REPRESENTATION('material name',(#290),#487);
#289=REPRESENTATION('density',(#285),#487);
#290=DESCRIPTIVE_REPRESENTATION_ITEM('Edelstahl AISI 304',
'Edelstahl AISI 304');
#291=PROPERTY_DEFINITION('material property','material name',#497);
#292=PROPERTY_DEFINITION('material property','density of part',#497);
#293=DATE_TIME_ROLE('creation_date');
#294=APPLIED_DATE_AND_TIME_ASSIGNMENT(#295,#293,(#497));
#295=DATE_AND_TIME(#296,#297);
#296=CALENDAR_DATE(2021,23,7);
#297=LOCAL_TIME(0,0,0.,#298);
#298=COORDINATED_UNIVERSAL_TIME_OFFSET(0,0,.BEHIND.);
#299=AXIS2_PLACEMENT_3D('placement',#412,#330,#331);
#300=AXIS2_PLACEMENT_3D('',#413,#332,#333);
#301=AXIS2_PLACEMENT_3D('',#415,#334,#335);
#302=AXIS2_PLACEMENT_3D('',#418,#337,#338);
#303=AXIS2_PLACEMENT_3D('',#419,#339,#340);
#304=AXIS2_PLACEMENT_3D('',#421,#341,#342);
#305=AXIS2_PLACEMENT_3D('',#424,#344,#345);
#306=AXIS2_PLACEMENT_3D('',#425,#346,#347);
#307=AXIS2_PLACEMENT_3D('',#427,#348,#349);
#308=AXIS2_PLACEMENT_3D('',#430,#351,#352);
#309=AXIS2_PLACEMENT_3D('',#431,#353,#354);
#310=AXIS2_PLACEMENT_3D('',#433,#355,#356);
#311=AXIS2_PLACEMENT_3D('',#434,#357,#358);
#312=AXIS2_PLACEMENT_3D('',#436,#359,#360);
#313=AXIS2_PLACEMENT_3D('',#439,#362,#363);
#314=AXIS2_PLACEMENT_3D('',#440,#364,#365);
#315=AXIS2_PLACEMENT_3D('',#442,#366,#367);
#316=AXIS2_PLACEMENT_3D('',#443,#368,#369);
#317=AXIS2_PLACEMENT_3D('',#445,#371,#372);
#318=AXIS2_PLACEMENT_3D('',#447,#373,#374);
#319=AXIS2_PLACEMENT_3D('',#450,#376,#377);
#320=AXIS2_PLACEMENT_3D('',#451,#378,#379);
#321=AXIS2_PLACEMENT_3D('',#453,#381,#382);
#322=AXIS2_PLACEMENT_3D('',#455,#383,#384);
#323=AXIS2_PLACEMENT_3D('',#458,#386,#387);
#324=AXIS2_PLACEMENT_3D('',#459,#388,#389);
#325=AXIS2_PLACEMENT_3D('',#468,#394,#395);
#326=AXIS2_PLACEMENT_3D('',#474,#399,#400);
#327=AXIS2_PLACEMENT_3D('',#480,#404,#405);
#328=AXIS2_PLACEMENT_3D('',#483,#408,#409);
#329=AXIS2_PLACEMENT_3D('',#484,#410,#411);
#330=DIRECTION('axis',(0.,0.,1.));
#331=DIRECTION('refdir',(1.,0.,0.));
#332=DIRECTION('center_axis',(0.,-1.,0.));
#333=DIRECTION('ref_axis',(1.,0.,0.));
#334=DIRECTION('center_axis',(0.,1.,0.));
#335=DIRECTION('ref_axis',(1.,0.,0.));
#336=DIRECTION('',(0.707106781186547,0.707106781186548,8.65956056235493E-17));
#337=DIRECTION('center_axis',(0.,-1.,0.));
#338=DIRECTION('ref_axis',(1.,0.,0.));
#339=DIRECTION('center_axis',(0.,-1.,0.));
#340=DIRECTION('ref_axis',(1.,0.,0.));
#341=DIRECTION('center_axis',(0.,1.,0.));
#342=DIRECTION('ref_axis',(1.,0.,0.));
#343=DIRECTION('',(0.707106781186547,0.707106781186548,8.65956056235493E-17));
#344=DIRECTION('center_axis',(0.,-1.,0.));
#345=DIRECTION('ref_axis',(1.,0.,0.));
#346=DIRECTION('center_axis',(0.,-1.,0.));
#347=DIRECTION('ref_axis',(1.,0.,0.));
#348=DIRECTION('center_axis',(0.,-1.,0.));
#349=DIRECTION('ref_axis',(1.,0.,0.));
#350=DIRECTION('',(0.,-1.,0.));
#351=DIRECTION('center_axis',(0.,-1.,0.));
#352=DIRECTION('ref_axis',(1.,0.,0.));
#353=DIRECTION('center_axis',(0.,1.,0.));
#354=DIRECTION('ref_axis',(0.,0.,1.));
#355=DIRECTION('center_axis',(0.,1.,0.));
#356=DIRECTION('ref_axis',(1.,0.,0.));
#357=DIRECTION('center_axis',(0.,-1.,0.));
#358=DIRECTION('ref_axis',(1.,0.,0.));
#359=DIRECTION('center_axis',(0.,-1.,0.));
#360=DIRECTION('ref_axis',(1.,0.,0.));
#361=DIRECTION('',(0.,-1.,0.));
#362=DIRECTION('center_axis',(0.,-1.,0.));
#363=DIRECTION('ref_axis',(1.,0.,0.));
#364=DIRECTION('center_axis',(0.,1.,0.));
#365=DIRECTION('ref_axis',(0.,0.,1.));
#366=DIRECTION('center_axis',(0.,1.,0.));
#367=DIRECTION('ref_axis',(1.,0.,0.));
#368=DIRECTION('center_axis',(0.,1.,0.));
#369=DIRECTION('ref_axis',(1.,0.,0.));
#370=DIRECTION('',(0.,-1.,0.));
#371=DIRECTION('center_axis',(0.,1.,0.));
#372=DIRECTION('ref_axis',(1.,0.,0.));
#373=DIRECTION('center_axis',(0.,-1.,0.));
#374=DIRECTION('ref_axis',(1.,0.,0.));
#375=DIRECTION('',(0.,-1.,0.));
#376=DIRECTION('center_axis',(0.,-1.,0.));
#377=DIRECTION('ref_axis',(1.,0.,0.));
#378=DIRECTION('center_axis',(0.,1.,0.));
#379=DIRECTION('ref_axis',(1.,0.,0.));
#380=DIRECTION('',(0.,-1.,0.));
#381=DIRECTION('center_axis',(0.,1.,0.));
#382=DIRECTION('ref_axis',(1.,0.,0.));
#383=DIRECTION('center_axis',(0.,-1.,0.));
#384=DIRECTION('ref_axis',(1.,0.,0.));
#385=DIRECTION('',(0.,-1.,0.));
#386=DIRECTION('center_axis',(0.,-1.,0.));
#387=DIRECTION('ref_axis',(1.,0.,0.));
#388=DIRECTION('center_axis',(0.,0.,1.));
#389=DIRECTION('ref_axis',(1.,0.,0.));
#390=DIRECTION('',(1.,0.,0.));
#391=DIRECTION('',(0.,1.,0.));
#392=DIRECTION('',(1.,0.,0.));
#393=DIRECTION('',(0.,1.,0.));
#394=DIRECTION('center_axis',(-1.,0.,0.));
#395=DIRECTION('ref_axis',(0.,0.,1.));
#396=DIRECTION('',(0.,0.,1.));
#397=DIRECTION('',(0.,0.,1.));
#398=DIRECTION('',(0.,1.,0.));
#399=DIRECTION('center_axis',(0.,0.,-1.));
#400=DIRECTION('ref_axis',(-1.,0.,0.));
#401=DIRECTION('',(-1.,0.,0.));
#402=DIRECTION('',(-1.,0.,0.));
#403=DIRECTION('',(0.,1.,0.));
#404=DIRECTION('center_axis',(1.,0.,0.));
#405=DIRECTION('ref_axis',(0.,0.,-1.));
#406=DIRECTION('',(0.,0.,-1.));
#407=DIRECTION('',(0.,0.,-1.));
#408=DIRECTION('center_axis',(0.,1.,0.));
#409=DIRECTION('ref_axis',(0.,0.,1.));
#410=DIRECTION('center_axis',(0.,1.,0.));
#411=DIRECTION('ref_axis',(0.,0.,1.));
#412=CARTESIAN_POINT('',(0.,0.,0.));
#413=CARTESIAN_POINT('Origin',(-35.,2.5,0.));
#414=CARTESIAN_POINT('',(-45.25,-5.55111512312578E-16,-1.25526296912604E-15));
#415=CARTESIAN_POINT('Origin',(-35.,0.,0.));
#416=CARTESIAN_POINT('',(-40.25,5.,-6.4293956955236E-16));
#417=CARTESIAN_POINT('',(-42.75,2.5,-9.49101269339199E-16));
#418=CARTESIAN_POINT('Origin',(-35.,5.,0.));
#419=CARTESIAN_POINT('Origin',(35.,2.5,0.));
#420=CARTESIAN_POINT('',(24.75,-5.55111512312578E-16,-1.25526296912604E-15));
#421=CARTESIAN_POINT('Origin',(35.,0.,0.));
#422=CARTESIAN_POINT('',(29.75,5.,-6.4293956955236E-16));
#423=CARTESIAN_POINT('',(27.25,2.5,-9.49101269339199E-16));
#424=CARTESIAN_POINT('Origin',(35.,5.,0.));
#425=CARTESIAN_POINT('Origin',(35.,6.,0.));
#426=CARTESIAN_POINT('',(24.75,6.,-1.25526296912604E-15));
#427=CARTESIAN_POINT('Origin',(35.,6.,0.));
#428=CARTESIAN_POINT('',(24.75,5.8,-1.25526296912604E-15));
#429=CARTESIAN_POINT('',(24.75,6.,-1.25526296912604E-15));
#430=CARTESIAN_POINT('Origin',(35.,5.8,0.));
#431=CARTESIAN_POINT('Origin',(35.,5.8,0.));
#432=CARTESIAN_POINT('',(29.75,5.8,6.42939569552361E-16));
#433=CARTESIAN_POINT('Origin',(35.,5.8,0.));
#434=CARTESIAN_POINT('Origin',(-35.,6.,0.));
#435=CARTESIAN_POINT('',(-45.25,6.,-1.25526296912604E-15));
#436=CARTESIAN_POINT('Origin',(-35.,6.,0.));
#437=CARTESIAN_POINT('',(-45.25,5.8,-1.25526296912604E-15));
#438=CARTESIAN_POINT('',(-45.25,6.,-1.25526296912604E-15));
#439=CARTESIAN_POINT('Origin',(-35.,5.8,0.));
#440=CARTESIAN_POINT('Origin',(-35.,5.8,0.));
#441=CARTESIAN_POINT('',(-40.25,5.8,6.4293956955236E-16));
#442=CARTESIAN_POINT('Origin',(-35.,5.8,0.));
#443=CARTESIAN_POINT('Origin',(35.,0.,0.));
#444=CARTESIAN_POINT('',(29.75,0.,6.42939569552361E-16));
#445=CARTESIAN_POINT('Origin',(0.,0.,35.));
#446=CARTESIAN_POINT('',(-5.25,6.,35.));
#447=CARTESIAN_POINT('Origin',(0.,6.,35.));
#448=CARTESIAN_POINT('',(-5.25,0.,35.));
#449=CARTESIAN_POINT('',(-5.25,0.,35.));
#450=CARTESIAN_POINT('Origin',(0.,0.,35.));
#451=CARTESIAN_POINT('Origin',(-35.,0.,0.));
#452=CARTESIAN_POINT('',(-40.25,0.,6.4293956955236E-16));
#453=CARTESIAN_POINT('Origin',(0.,0.,-35.));
#454=CARTESIAN_POINT('',(-5.25,6.,-35.));
#455=CARTESIAN_POINT('Origin',(0.,6.,-35.));
#456=CARTESIAN_POINT('',(-5.25,0.,-35.));
#457=CARTESIAN_POINT('',(-5.25,0.,-35.));
#458=CARTESIAN_POINT('Origin',(0.,0.,-35.));
#459=CARTESIAN_POINT('Origin',(-50.,0.,50.));
#460=CARTESIAN_POINT('',(-50.,0.,50.));
#461=CARTESIAN_POINT('',(50.,0.,50.));
#462=CARTESIAN_POINT('',(-50.,0.,50.));
#463=CARTESIAN_POINT('',(50.,6.,50.));
#464=CARTESIAN_POINT('',(50.,0.,50.));
#465=CARTESIAN_POINT('',(-50.,6.,50.));
#466=CARTESIAN_POINT('',(-50.,6.,50.));
#467=CARTESIAN_POINT('',(-50.,0.,50.));
#468=CARTESIAN_POINT('Origin',(-50.,0.,-50.));
#469=CARTESIAN_POINT('',(-50.,0.,-50.));
#470=CARTESIAN_POINT('',(-50.,0.,-50.));
#471=CARTESIAN_POINT('',(-50.,6.,-50.));
#472=CARTESIAN_POINT('',(-50.,6.,-50.));
#473=CARTESIAN_POINT('',(-50.,0.,-50.));
#474=CARTESIAN_POINT('Origin',(50.,0.,-50.));
#475=CARTESIAN_POINT('',(50.,0.,-50.));
#476=CARTESIAN_POINT('',(50.,0.,-50.));
#477=CARTESIAN_POINT('',(50.,6.,-50.));
#478=CARTESIAN_POINT('',(50.,6.,-50.));
#479=CARTESIAN_POINT('',(50.,0.,-50.));
#480=CARTESIAN_POINT('Origin',(50.,0.,50.));
#481=CARTESIAN_POINT('',(50.,0.,50.));
#482=CARTESIAN_POINT('',(50.,6.,50.));
#483=CARTESIAN_POINT('Origin',(0.,6.,0.));
#484=CARTESIAN_POINT('Origin',(0.,0.,0.));
#485=UNCERTAINTY_MEASURE_WITH_UNIT(LENGTH_MEASURE(0.01),#489,
'DISTANCE_ACCURACY_VALUE',
'Maximum model space distance between geometric entities at asserted c
onnectivities');
#486=UNCERTAINTY_MEASURE_WITH_UNIT(LENGTH_MEASURE(0.01),#489,
'DISTANCE_ACCURACY_VALUE',
'Maximum model space distance between geometric entities at asserted c
onnectivities');
#487=(
GEOMETRIC_REPRESENTATION_CONTEXT(3)
GLOBAL_UNCERTAINTY_ASSIGNED_CONTEXT((#485))
GLOBAL_UNIT_ASSIGNED_CONTEXT((#489,#491,#492))
REPRESENTATION_CONTEXT('','3D')
);
#488=(
GEOMETRIC_REPRESENTATION_CONTEXT(3)
GLOBAL_UNCERTAINTY_ASSIGNED_CONTEXT((#486))
GLOBAL_UNIT_ASSIGNED_CONTEXT((#489,#491,#492))
REPRESENTATION_CONTEXT('','3D')
);
#489=(
LENGTH_UNIT()
NAMED_UNIT(*)
SI_UNIT(.MILLI.,.METRE.)
);
#490=(
LENGTH_UNIT()
NAMED_UNIT(*)
SI_UNIT(.CENTI.,.METRE.)
);
#491=(
NAMED_UNIT(*)
PLANE_ANGLE_UNIT()
SI_UNIT($,.RADIAN.)
);
#492=(
NAMED_UNIT(*)
SI_UNIT($,.STERADIAN.)
SOLID_ANGLE_UNIT()
);
#493=SHAPE_DEFINITION_REPRESENTATION(#494,#495);
#494=PRODUCT_DEFINITION_SHAPE('',$,#497);
#495=SHAPE_REPRESENTATION('',(#299),#487);
#496=PRODUCT_DEFINITION_CONTEXT('part definition',#501,'design');
#497=PRODUCT_DEFINITION('41172','41172',#498,#496);
#498=PRODUCT_DEFINITION_FORMATION('',$,#503);
#499=PRODUCT_RELATED_PRODUCT_CATEGORY('41172','41172',(#503));
#500=APPLICATION_PROTOCOL_DEFINITION('international standard',
'automotive_design',2009,#501);
#501=APPLICATION_CONTEXT(
'Core Data for Automotive Mechanical Design Process');
#502=PRODUCT_CONTEXT('part definition',#501,'mechanical');
#503=PRODUCT('41172','41172',$,(#502));
#504=PRESENTATION_STYLE_ASSIGNMENT((#505));
#505=SURFACE_STYLE_USAGE(.BOTH.,#508);
#506=SURFACE_STYLE_RENDERING_WITH_PROPERTIES($,#512,(#507));
#507=SURFACE_STYLE_TRANSPARENT(0.);
#508=SURFACE_SIDE_STYLE('',(#509,#506));
#509=SURFACE_STYLE_FILL_AREA(#510);
#510=FILL_AREA_STYLE('',(#511));
#511=FILL_AREA_STYLE_COLOUR('',#512);
#512=COLOUR_RGB('',0.956862745098039,0.956862745098039,0.956862745098039);
ENDSEC;
END-ISO-10303-21;
