ISO-10303-21;
HEADER;
/* Generated by software containing ST-Developer
 * from STEP Tools, Inc. (www.steptools.com) 
 */

FILE_DESCRIPTION(
/* description */ (''),
/* implementation_level */ '2;1');

FILE_NAME(
/* name */ 
'C:\\Users\\O.Boryczka\\Desktop\\Korrigierte Zeichnungen\\Rosetten V2A
\\IPT_Daten\\41202.ipt.step',
/* time_stamp */ '2022-07-18T12:57:32+02:00',
/* author */ ('Nutzer'),
/* organization */ (''),
/* preprocessor_version */ 'ST-DEVELOPER v18.1',
/* originating_system */ 'Autodesk Inventor 2022',
/* authorisation */ '');

FILE_SCHEMA (('AUTOMOTIVE_DESIGN { 1 0 10303 214 3 1 1 }'));
ENDSEC;

DATA;
#10=MECHANICAL_DESIGN_GEOMETRIC_PRESENTATION_REPRESENTATION('',(#13),#251);
#11=SHAPE_REPRESENTATION_RELATIONSHIP('SRR','None',#258,#12);
#12=ADVANCED_BREP_SHAPE_REPRESENTATION('',(#14),#250);
#13=STYLED_ITEM('',(#267),#14);
#14=MANIFOLD_SOLID_BREP('Volumenk\X\F6rper1',#126);
#15=FACE_BOUND('',#35,.T.);
#16=FACE_BOUND('',#39,.T.);
#17=FACE_BOUND('',#41,.T.);
#18=PLANE('',#159);
#19=PLANE('',#167);
#20=PLANE('',#168);
#21=TOROIDAL_SURFACE('',#152,33.,3.);
#22=TOROIDAL_SURFACE('',#160,33.,4.5);
#23=FACE_OUTER_BOUND('',#31,.T.);
#24=FACE_OUTER_BOUND('',#32,.T.);
#25=FACE_OUTER_BOUND('',#33,.T.);
#26=FACE_OUTER_BOUND('',#34,.T.);
#27=FACE_OUTER_BOUND('',#36,.T.);
#28=FACE_OUTER_BOUND('',#37,.T.);
#29=FACE_OUTER_BOUND('',#38,.T.);
#30=FACE_OUTER_BOUND('',#40,.T.);
#31=EDGE_LOOP('',(#85,#86,#87,#88));
#32=EDGE_LOOP('',(#89,#90,#91,#92,#93));
#33=EDGE_LOOP('',(#94,#95,#96,#97,#98));
#34=EDGE_LOOP('',(#99));
#35=EDGE_LOOP('',(#100));
#36=EDGE_LOOP('',(#101,#102,#103,#104,#105));
#37=EDGE_LOOP('',(#106,#107,#108,#109,#110));
#38=EDGE_LOOP('',(#111));
#39=EDGE_LOOP('',(#112));
#40=EDGE_LOOP('',(#113));
#41=EDGE_LOOP('',(#114));
#42=LINE('',#219,#45);
#43=LINE('',#232,#46);
#44=LINE('',#244,#47);
#45=VECTOR('',#175,17.1);
#46=VECTOR('',#192,37.5);
#47=VECTOR('',#207,37.5);
#48=CIRCLE('',#150,17.1);
#49=CIRCLE('',#151,17.1);
#50=CIRCLE('',#153,36.);
#51=CIRCLE('',#154,3.);
#52=CIRCLE('',#155,33.);
#53=CIRCLE('',#156,36.);
#54=CIRCLE('',#158,36.);
#55=CIRCLE('',#161,33.);
#56=CIRCLE('',#162,4.5);
#57=CIRCLE('',#163,37.5);
#58=CIRCLE('',#164,37.5);
#59=CIRCLE('',#166,37.5);
#60=VERTEX_POINT('',#216);
#61=VERTEX_POINT('',#218);
#62=VERTEX_POINT('',#222);
#63=VERTEX_POINT('',#223);
#64=VERTEX_POINT('',#225);
#65=VERTEX_POINT('',#230);
#66=VERTEX_POINT('',#235);
#67=VERTEX_POINT('',#237);
#68=VERTEX_POINT('',#239);
#69=VERTEX_POINT('',#243);
#70=EDGE_CURVE('',#60,#60,#48,.T.);
#71=EDGE_CURVE('',#60,#61,#42,.T.);
#72=EDGE_CURVE('',#61,#61,#49,.T.);
#73=EDGE_CURVE('',#62,#63,#50,.T.);
#74=EDGE_CURVE('',#62,#64,#51,.T.);
#75=EDGE_CURVE('',#64,#64,#52,.T.);
#76=EDGE_CURVE('',#63,#62,#53,.T.);
#77=EDGE_CURVE('',#65,#65,#54,.T.);
#78=EDGE_CURVE('',#65,#63,#43,.T.);
#79=EDGE_CURVE('',#66,#66,#55,.T.);
#80=EDGE_CURVE('',#66,#67,#56,.T.);
#81=EDGE_CURVE('',#67,#68,#57,.T.);
#82=EDGE_CURVE('',#68,#67,#58,.T.);
#83=EDGE_CURVE('',#68,#69,#44,.T.);
#84=EDGE_CURVE('',#69,#69,#59,.T.);
#85=ORIENTED_EDGE('',*,*,#70,.F.);
#86=ORIENTED_EDGE('',*,*,#71,.T.);
#87=ORIENTED_EDGE('',*,*,#72,.F.);
#88=ORIENTED_EDGE('',*,*,#71,.F.);
#89=ORIENTED_EDGE('',*,*,#73,.F.);
#90=ORIENTED_EDGE('',*,*,#74,.T.);
#91=ORIENTED_EDGE('',*,*,#75,.F.);
#92=ORIENTED_EDGE('',*,*,#74,.F.);
#93=ORIENTED_EDGE('',*,*,#76,.F.);
#94=ORIENTED_EDGE('',*,*,#77,.F.);
#95=ORIENTED_EDGE('',*,*,#78,.T.);
#96=ORIENTED_EDGE('',*,*,#76,.T.);
#97=ORIENTED_EDGE('',*,*,#73,.T.);
#98=ORIENTED_EDGE('',*,*,#78,.F.);
#99=ORIENTED_EDGE('',*,*,#75,.T.);
#100=ORIENTED_EDGE('',*,*,#72,.T.);
#101=ORIENTED_EDGE('',*,*,#79,.T.);
#102=ORIENTED_EDGE('',*,*,#80,.T.);
#103=ORIENTED_EDGE('',*,*,#81,.T.);
#104=ORIENTED_EDGE('',*,*,#82,.T.);
#105=ORIENTED_EDGE('',*,*,#80,.F.);
#106=ORIENTED_EDGE('',*,*,#81,.F.);
#107=ORIENTED_EDGE('',*,*,#82,.F.);
#108=ORIENTED_EDGE('',*,*,#83,.T.);
#109=ORIENTED_EDGE('',*,*,#84,.T.);
#110=ORIENTED_EDGE('',*,*,#83,.F.);
#111=ORIENTED_EDGE('',*,*,#79,.F.);
#112=ORIENTED_EDGE('',*,*,#70,.T.);
#113=ORIENTED_EDGE('',*,*,#84,.F.);
#114=ORIENTED_EDGE('',*,*,#77,.T.);
#115=CYLINDRICAL_SURFACE('',#149,17.1);
#116=CYLINDRICAL_SURFACE('',#157,36.);
#117=CYLINDRICAL_SURFACE('',#165,37.5);
#118=ADVANCED_FACE('',(#23),#115,.F.);
#119=ADVANCED_FACE('',(#24),#21,.F.);
#120=ADVANCED_FACE('',(#25),#116,.F.);
#121=ADVANCED_FACE('',(#26,#15),#18,.F.);
#122=ADVANCED_FACE('',(#27),#22,.T.);
#123=ADVANCED_FACE('',(#28),#117,.T.);
#124=ADVANCED_FACE('',(#29,#16),#19,.T.);
#125=ADVANCED_FACE('',(#30,#17),#20,.F.);
#126=CLOSED_SHELL('',(#118,#119,#120,#121,#122,#123,#124,#125));
#127=DERIVED_UNIT_ELEMENT(#130,1.);
#128=DERIVED_UNIT_ELEMENT(#253,-3.);
#129=DIMENSIONAL_EXPONENTS(1.,0.,0.,0.,0.,0.,0.);
#130=(
CONVERSION_BASED_UNIT('gram',#132)
MASS_UNIT()
NAMED_UNIT(#129)
);
#131=(
MASS_UNIT()
NAMED_UNIT(*)
SI_UNIT(.KILO.,.GRAM.)
);
#132=MASS_MEASURE_WITH_UNIT(MASS_MEASURE(0.001),#131);
#133=DERIVED_UNIT((#127,#128));
#134=MEASURE_REPRESENTATION_ITEM('density measure',
POSITIVE_RATIO_MEASURE(8.),#133);
#135=PROPERTY_DEFINITION_REPRESENTATION(#140,#137);
#136=PROPERTY_DEFINITION_REPRESENTATION(#141,#138);
#137=REPRESENTATION('material name',(#139),#250);
#138=REPRESENTATION('density',(#134),#250);
#139=DESCRIPTIVE_REPRESENTATION_ITEM('Edelstahl AISI 304',
'Edelstahl AISI 304');
#140=PROPERTY_DEFINITION('material property','material name',#260);
#141=PROPERTY_DEFINITION('material property','density of part',#260);
#142=DATE_TIME_ROLE('creation_date');
#143=APPLIED_DATE_AND_TIME_ASSIGNMENT(#144,#142,(#260));
#144=DATE_AND_TIME(#145,#146);
#145=CALENDAR_DATE(2021,22,4);
#146=LOCAL_TIME(0,0,0.,#147);
#147=COORDINATED_UNIVERSAL_TIME_OFFSET(0,0,.BEHIND.);
#148=AXIS2_PLACEMENT_3D('placement',#214,#169,#170);
#149=AXIS2_PLACEMENT_3D('',#215,#171,#172);
#150=AXIS2_PLACEMENT_3D('',#217,#173,#174);
#151=AXIS2_PLACEMENT_3D('',#220,#176,#177);
#152=AXIS2_PLACEMENT_3D('',#221,#178,#179);
#153=AXIS2_PLACEMENT_3D('',#224,#180,#181);
#154=AXIS2_PLACEMENT_3D('',#226,#182,#183);
#155=AXIS2_PLACEMENT_3D('',#227,#184,#185);
#156=AXIS2_PLACEMENT_3D('',#228,#186,#187);
#157=AXIS2_PLACEMENT_3D('',#229,#188,#189);
#158=AXIS2_PLACEMENT_3D('',#231,#190,#191);
#159=AXIS2_PLACEMENT_3D('',#233,#193,#194);
#160=AXIS2_PLACEMENT_3D('',#234,#195,#196);
#161=AXIS2_PLACEMENT_3D('',#236,#197,#198);
#162=AXIS2_PLACEMENT_3D('',#238,#199,#200);
#163=AXIS2_PLACEMENT_3D('',#240,#201,#202);
#164=AXIS2_PLACEMENT_3D('',#241,#203,#204);
#165=AXIS2_PLACEMENT_3D('',#242,#205,#206);
#166=AXIS2_PLACEMENT_3D('',#245,#208,#209);
#167=AXIS2_PLACEMENT_3D('',#246,#210,#211);
#168=AXIS2_PLACEMENT_3D('',#247,#212,#213);
#169=DIRECTION('axis',(0.,0.,1.));
#170=DIRECTION('refdir',(1.,0.,0.));
#171=DIRECTION('center_axis',(0.,-1.,0.));
#172=DIRECTION('ref_axis',(1.,0.,0.));
#173=DIRECTION('center_axis',(0.,-1.,0.));
#174=DIRECTION('ref_axis',(1.,0.,0.));
#175=DIRECTION('',(0.,-1.,0.));
#176=DIRECTION('center_axis',(0.,1.,0.));
#177=DIRECTION('ref_axis',(1.,0.,0.));
#178=DIRECTION('center_axis',(0.,1.,0.));
#179=DIRECTION('ref_axis',(0.,0.,1.));
#180=DIRECTION('center_axis',(0.,1.,0.));
#181=DIRECTION('ref_axis',(1.,0.,1.22464679914735E-16));
#182=DIRECTION('center_axis',(1.,0.,-1.22464679914735E-16));
#183=DIRECTION('ref_axis',(-1.22464679914735E-16,0.,-1.));
#184=DIRECTION('center_axis',(0.,-1.,0.));
#185=DIRECTION('ref_axis',(1.,0.,1.22464679914735E-16));
#186=DIRECTION('center_axis',(0.,1.,0.));
#187=DIRECTION('ref_axis',(1.,0.,1.22464679914735E-16));
#188=DIRECTION('center_axis',(0.,1.,0.));
#189=DIRECTION('ref_axis',(-1.,0.,0.));
#190=DIRECTION('center_axis',(0.,1.,0.));
#191=DIRECTION('ref_axis',(-1.,0.,0.));
#192=DIRECTION('',(0.,1.,0.));
#193=DIRECTION('center_axis',(0.,1.,0.));
#194=DIRECTION('ref_axis',(0.,0.,1.));
#195=DIRECTION('center_axis',(0.,1.,0.));
#196=DIRECTION('ref_axis',(0.,0.,1.));
#197=DIRECTION('center_axis',(0.,-1.,0.));
#198=DIRECTION('ref_axis',(1.,0.,1.22464679914735E-16));
#199=DIRECTION('center_axis',(-1.,0.,1.22464679914735E-16));
#200=DIRECTION('ref_axis',(-1.22464679914735E-16,0.,-1.));
#201=DIRECTION('center_axis',(0.,1.,0.));
#202=DIRECTION('ref_axis',(1.,0.,1.22464679914735E-16));
#203=DIRECTION('center_axis',(0.,1.,0.));
#204=DIRECTION('ref_axis',(1.,0.,1.22464679914735E-16));
#205=DIRECTION('center_axis',(0.,1.,0.));
#206=DIRECTION('ref_axis',(-1.,0.,0.));
#207=DIRECTION('',(0.,-1.,0.));
#208=DIRECTION('center_axis',(0.,1.,0.));
#209=DIRECTION('ref_axis',(-1.,0.,0.));
#210=DIRECTION('center_axis',(0.,1.,0.));
#211=DIRECTION('ref_axis',(0.,0.,1.));
#212=DIRECTION('center_axis',(0.,1.,0.));
#213=DIRECTION('ref_axis',(0.,0.,1.));
#214=CARTESIAN_POINT('',(0.,0.,0.));
#215=CARTESIAN_POINT('Origin',(0.,15.,0.));
#216=CARTESIAN_POINT('',(-17.1,15.,-2.09414602654197E-15));
#217=CARTESIAN_POINT('Origin',(0.,15.,0.));
#218=CARTESIAN_POINT('',(-17.1,13.5,2.09414602654197E-15));
#219=CARTESIAN_POINT('',(-17.1,15.,-2.09414602654197E-15));
#220=CARTESIAN_POINT('Origin',(0.,13.5,0.));
#221=CARTESIAN_POINT('Origin',(0.,10.5,0.));
#222=CARTESIAN_POINT('',(-4.40872847693047E-15,10.5,-36.));
#223=CARTESIAN_POINT('',(36.,10.5,-4.40872847693047E-15));
#224=CARTESIAN_POINT('Origin',(0.,10.5,0.));
#225=CARTESIAN_POINT('',(-4.04133443718626E-15,13.5,-33.));
#226=CARTESIAN_POINT('Origin',(-4.04133443718626E-15,10.5,-33.));
#227=CARTESIAN_POINT('Origin',(0.,13.5,0.));
#228=CARTESIAN_POINT('Origin',(0.,10.5,0.));
#229=CARTESIAN_POINT('Origin',(0.,0.,0.));
#230=CARTESIAN_POINT('',(36.,0.,4.40872847693047E-15));
#231=CARTESIAN_POINT('Origin',(0.,0.,0.));
#232=CARTESIAN_POINT('',(36.,0.,-4.40872847693047E-15));
#233=CARTESIAN_POINT('Origin',(0.,13.5,0.));
#234=CARTESIAN_POINT('Origin',(0.,10.5,0.));
#235=CARTESIAN_POINT('',(-4.04133443718626E-15,15.,-33.));
#236=CARTESIAN_POINT('Origin',(0.,15.,0.));
#237=CARTESIAN_POINT('',(-4.59242549680257E-15,10.5,-37.5));
#238=CARTESIAN_POINT('Origin',(-4.04133443718626E-15,10.5,-33.));
#239=CARTESIAN_POINT('',(37.5,10.5,-4.59242549680257E-15));
#240=CARTESIAN_POINT('Origin',(0.,10.5,0.));
#241=CARTESIAN_POINT('Origin',(0.,10.5,0.));
#242=CARTESIAN_POINT('Origin',(0.,0.,0.));
#243=CARTESIAN_POINT('',(37.5,0.,-4.59242549680257E-15));
#244=CARTESIAN_POINT('',(37.5,0.,-4.59242549680257E-15));
#245=CARTESIAN_POINT('Origin',(0.,0.,0.));
#246=CARTESIAN_POINT('Origin',(0.,15.,0.));
#247=CARTESIAN_POINT('Origin',(0.,0.,0.));
#248=UNCERTAINTY_MEASURE_WITH_UNIT(LENGTH_MEASURE(0.01),#252,
'DISTANCE_ACCURACY_VALUE',
'Maximum model space distance between geometric entities at asserted c
onnectivities');
#249=UNCERTAINTY_MEASURE_WITH_UNIT(LENGTH_MEASURE(0.01),#252,
'DISTANCE_ACCURACY_VALUE',
'Maximum model space distance between geometric entities at asserted c
onnectivities');
#250=(
GEOMETRIC_REPRESENTATION_CONTEXT(3)
GLOBAL_UNCERTAINTY_ASSIGNED_CONTEXT((#248))
GLOBAL_UNIT_ASSIGNED_CONTEXT((#252,#254,#255))
REPRESENTATION_CONTEXT('','3D')
);
#251=(
GEOMETRIC_REPRESENTATION_CONTEXT(3)
GLOBAL_UNCERTAINTY_ASSIGNED_CONTEXT((#249))
GLOBAL_UNIT_ASSIGNED_CONTEXT((#252,#254,#255))
REPRESENTATION_CONTEXT('','3D')
);
#252=(
LENGTH_UNIT()
NAMED_UNIT(*)
SI_UNIT(.MILLI.,.METRE.)
);
#253=(
LENGTH_UNIT()
NAMED_UNIT(*)
SI_UNIT(.CENTI.,.METRE.)
);
#254=(
NAMED_UNIT(*)
PLANE_ANGLE_UNIT()
SI_UNIT($,.RADIAN.)
);
#255=(
NAMED_UNIT(*)
SI_UNIT($,.STERADIAN.)
SOLID_ANGLE_UNIT()
);
#256=SHAPE_DEFINITION_REPRESENTATION(#257,#258);
#257=PRODUCT_DEFINITION_SHAPE('',$,#260);
#258=SHAPE_REPRESENTATION('',(#148),#250);
#259=PRODUCT_DEFINITION_CONTEXT('part definition',#264,'design');
#260=PRODUCT_DEFINITION('41202','41202',#261,#259);
#261=PRODUCT_DEFINITION_FORMATION('',$,#266);
#262=PRODUCT_RELATED_PRODUCT_CATEGORY('41202','41202',(#266));
#263=APPLICATION_PROTOCOL_DEFINITION('international standard',
'automotive_design',2009,#264);
#264=APPLICATION_CONTEXT(
'Core Data for Automotive Mechanical Design Process');
#265=PRODUCT_CONTEXT('part definition',#264,'mechanical');
#266=PRODUCT('41202','41202',$,(#265));
#267=PRESENTATION_STYLE_ASSIGNMENT((#268));
#268=SURFACE_STYLE_USAGE(.BOTH.,#271);
#269=SURFACE_STYLE_RENDERING_WITH_PROPERTIES($,#275,(#270));
#270=SURFACE_STYLE_TRANSPARENT(0.);
#271=SURFACE_SIDE_STYLE('',(#272,#269));
#272=SURFACE_STYLE_FILL_AREA(#273);
#273=FILL_AREA_STYLE('',(#274));
#274=FILL_AREA_STYLE_COLOUR('',#275);
#275=COLOUR_RGB('',0.956862745098039,0.956862745098039,0.956862745098039);
ENDSEC;
END-ISO-10303-21;
