ISO-10303-21;
HEADER;
/* Generated by software containing ST-Developer
 * from STEP Tools, Inc. (www.steptools.com) 
 */

FILE_DESCRIPTION(
/* description */ (''),
/* implementation_level */ '2;1');

FILE_NAME(
/* name */ 
'C:\\Users\\O.Boryczka\\Desktop\\Korrigierte Zeichnungen\\Rosetten V2A
\\IPT_Daten\\41212.ipt.step',
/* time_stamp */ '2022-07-18T12:57:35+02:00',
/* author */ ('Nutzer'),
/* organization */ (''),
/* preprocessor_version */ 'ST-DEVELOPER v18.1',
/* originating_system */ 'Autodesk Inventor 2022',
/* authorisation */ '');

FILE_SCHEMA (('AUTOMOTIVE_DESIGN { 1 0 10303 214 3 1 1 }'));
ENDSEC;

DATA;
#10=MECHANICAL_DESIGN_GEOMETRIC_PRESENTATION_REPRESENTATION('',(#13),#215);
#11=SHAPE_REPRESENTATION_RELATIONSHIP('SRR','None',#222,#12);
#12=ADVANCED_BREP_SHAPE_REPRESENTATION('',(#14),#214);
#13=STYLED_ITEM('',(#231),#14);
#14=MANIFOLD_SOLID_BREP('Volumenk\X\F6rper1',#108);
#15=FACE_BOUND('',#33,.T.);
#16=FACE_BOUND('',#36,.T.);
#17=FACE_BOUND('',#38,.T.);
#18=PLANE('',#141);
#19=PLANE('',#145);
#20=PLANE('',#146);
#21=TOROIDAL_SURFACE('',#134,47.5,5.);
#22=FACE_OUTER_BOUND('',#29,.T.);
#23=FACE_OUTER_BOUND('',#30,.T.);
#24=FACE_OUTER_BOUND('',#31,.T.);
#25=FACE_OUTER_BOUND('',#32,.T.);
#26=FACE_OUTER_BOUND('',#34,.T.);
#27=FACE_OUTER_BOUND('',#35,.T.);
#28=FACE_OUTER_BOUND('',#37,.T.);
#29=EDGE_LOOP('',(#74,#75,#76,#77));
#30=EDGE_LOOP('',(#78,#79,#80,#81,#82));
#31=EDGE_LOOP('',(#83,#84,#85,#86,#87));
#32=EDGE_LOOP('',(#88));
#33=EDGE_LOOP('',(#89));
#34=EDGE_LOOP('',(#90,#91,#92,#93));
#35=EDGE_LOOP('',(#94));
#36=EDGE_LOOP('',(#95));
#37=EDGE_LOOP('',(#96));
#38=EDGE_LOOP('',(#97));
#39=LINE('',#189,#42);
#40=LINE('',#201,#43);
#41=LINE('',#208,#44);
#42=VECTOR('',#153,17.1);
#43=VECTOR('',#168,52.5);
#44=VECTOR('',#177,52.5);
#45=CIRCLE('',#132,17.1);
#46=CIRCLE('',#133,17.1);
#47=CIRCLE('',#135,47.5);
#48=CIRCLE('',#136,5.);
#49=CIRCLE('',#137,52.5);
#50=CIRCLE('',#138,52.5);
#51=CIRCLE('',#140,52.5);
#52=CIRCLE('',#143,51.);
#53=CIRCLE('',#144,51.);
#54=VERTEX_POINT('',#186);
#55=VERTEX_POINT('',#188);
#56=VERTEX_POINT('',#192);
#57=VERTEX_POINT('',#194);
#58=VERTEX_POINT('',#196);
#59=VERTEX_POINT('',#200);
#60=VERTEX_POINT('',#205);
#61=VERTEX_POINT('',#207);
#62=EDGE_CURVE('',#54,#54,#45,.T.);
#63=EDGE_CURVE('',#54,#55,#39,.T.);
#64=EDGE_CURVE('',#55,#55,#46,.T.);
#65=EDGE_CURVE('',#56,#56,#47,.T.);
#66=EDGE_CURVE('',#56,#57,#48,.T.);
#67=EDGE_CURVE('',#57,#58,#49,.T.);
#68=EDGE_CURVE('',#58,#57,#50,.T.);
#69=EDGE_CURVE('',#58,#59,#40,.T.);
#70=EDGE_CURVE('',#59,#59,#51,.T.);
#71=EDGE_CURVE('',#60,#60,#52,.T.);
#72=EDGE_CURVE('',#60,#61,#41,.T.);
#73=EDGE_CURVE('',#61,#61,#53,.F.);
#74=ORIENTED_EDGE('',*,*,#62,.F.);
#75=ORIENTED_EDGE('',*,*,#63,.T.);
#76=ORIENTED_EDGE('',*,*,#64,.F.);
#77=ORIENTED_EDGE('',*,*,#63,.F.);
#78=ORIENTED_EDGE('',*,*,#65,.T.);
#79=ORIENTED_EDGE('',*,*,#66,.T.);
#80=ORIENTED_EDGE('',*,*,#67,.T.);
#81=ORIENTED_EDGE('',*,*,#68,.T.);
#82=ORIENTED_EDGE('',*,*,#66,.F.);
#83=ORIENTED_EDGE('',*,*,#67,.F.);
#84=ORIENTED_EDGE('',*,*,#68,.F.);
#85=ORIENTED_EDGE('',*,*,#69,.T.);
#86=ORIENTED_EDGE('',*,*,#70,.T.);
#87=ORIENTED_EDGE('',*,*,#69,.F.);
#88=ORIENTED_EDGE('',*,*,#65,.F.);
#89=ORIENTED_EDGE('',*,*,#62,.T.);
#90=ORIENTED_EDGE('',*,*,#71,.F.);
#91=ORIENTED_EDGE('',*,*,#72,.T.);
#92=ORIENTED_EDGE('',*,*,#73,.T.);
#93=ORIENTED_EDGE('',*,*,#72,.F.);
#94=ORIENTED_EDGE('',*,*,#73,.F.);
#95=ORIENTED_EDGE('',*,*,#64,.T.);
#96=ORIENTED_EDGE('',*,*,#70,.F.);
#97=ORIENTED_EDGE('',*,*,#71,.T.);
#98=CYLINDRICAL_SURFACE('',#131,17.1);
#99=CYLINDRICAL_SURFACE('',#139,52.5);
#100=CYLINDRICAL_SURFACE('',#142,51.);
#101=ADVANCED_FACE('',(#22),#98,.F.);
#102=ADVANCED_FACE('',(#23),#21,.T.);
#103=ADVANCED_FACE('',(#24),#99,.T.);
#104=ADVANCED_FACE('',(#25,#15),#18,.T.);
#105=ADVANCED_FACE('',(#26),#100,.F.);
#106=ADVANCED_FACE('',(#27,#16),#19,.F.);
#107=ADVANCED_FACE('',(#28,#17),#20,.F.);
#108=CLOSED_SHELL('',(#101,#102,#103,#104,#105,#106,#107));
#109=DERIVED_UNIT_ELEMENT(#112,1.);
#110=DERIVED_UNIT_ELEMENT(#217,-3.);
#111=DIMENSIONAL_EXPONENTS(1.,0.,0.,0.,0.,0.,0.);
#112=(
CONVERSION_BASED_UNIT('gram',#114)
MASS_UNIT()
NAMED_UNIT(#111)
);
#113=(
MASS_UNIT()
NAMED_UNIT(*)
SI_UNIT(.KILO.,.GRAM.)
);
#114=MASS_MEASURE_WITH_UNIT(MASS_MEASURE(0.001),#113);
#115=DERIVED_UNIT((#109,#110));
#116=MEASURE_REPRESENTATION_ITEM('density measure',
POSITIVE_RATIO_MEASURE(8.),#115);
#117=PROPERTY_DEFINITION_REPRESENTATION(#122,#119);
#118=PROPERTY_DEFINITION_REPRESENTATION(#123,#120);
#119=REPRESENTATION('material name',(#121),#214);
#120=REPRESENTATION('density',(#116),#214);
#121=DESCRIPTIVE_REPRESENTATION_ITEM('Edelstahl AISI 304',
'Edelstahl AISI 304');
#122=PROPERTY_DEFINITION('material property','material name',#224);
#123=PROPERTY_DEFINITION('material property','density of part',#224);
#124=DATE_TIME_ROLE('creation_date');
#125=APPLIED_DATE_AND_TIME_ASSIGNMENT(#126,#124,(#224));
#126=DATE_AND_TIME(#127,#128);
#127=CALENDAR_DATE(2021,22,4);
#128=LOCAL_TIME(0,0,0.,#129);
#129=COORDINATED_UNIVERSAL_TIME_OFFSET(0,0,.BEHIND.);
#130=AXIS2_PLACEMENT_3D('placement',#184,#147,#148);
#131=AXIS2_PLACEMENT_3D('',#185,#149,#150);
#132=AXIS2_PLACEMENT_3D('',#187,#151,#152);
#133=AXIS2_PLACEMENT_3D('',#190,#154,#155);
#134=AXIS2_PLACEMENT_3D('',#191,#156,#157);
#135=AXIS2_PLACEMENT_3D('',#193,#158,#159);
#136=AXIS2_PLACEMENT_3D('',#195,#160,#161);
#137=AXIS2_PLACEMENT_3D('',#197,#162,#163);
#138=AXIS2_PLACEMENT_3D('',#198,#164,#165);
#139=AXIS2_PLACEMENT_3D('',#199,#166,#167);
#140=AXIS2_PLACEMENT_3D('',#202,#169,#170);
#141=AXIS2_PLACEMENT_3D('',#203,#171,#172);
#142=AXIS2_PLACEMENT_3D('',#204,#173,#174);
#143=AXIS2_PLACEMENT_3D('',#206,#175,#176);
#144=AXIS2_PLACEMENT_3D('',#209,#178,#179);
#145=AXIS2_PLACEMENT_3D('',#210,#180,#181);
#146=AXIS2_PLACEMENT_3D('',#211,#182,#183);
#147=DIRECTION('axis',(0.,0.,1.));
#148=DIRECTION('refdir',(1.,0.,0.));
#149=DIRECTION('center_axis',(0.,-1.,0.));
#150=DIRECTION('ref_axis',(1.,0.,0.));
#151=DIRECTION('center_axis',(0.,-1.,0.));
#152=DIRECTION('ref_axis',(1.,0.,0.));
#153=DIRECTION('',(0.,-1.,0.));
#154=DIRECTION('center_axis',(0.,1.,0.));
#155=DIRECTION('ref_axis',(1.,0.,0.));
#156=DIRECTION('center_axis',(0.,1.,0.));
#157=DIRECTION('ref_axis',(0.,0.,1.));
#158=DIRECTION('center_axis',(0.,-1.,0.));
#159=DIRECTION('ref_axis',(1.,0.,1.22464679914735E-16));
#160=DIRECTION('center_axis',(-1.,0.,1.22464679914735E-16));
#161=DIRECTION('ref_axis',(-1.22464679914735E-16,0.,-1.));
#162=DIRECTION('center_axis',(0.,1.,0.));
#163=DIRECTION('ref_axis',(1.,0.,1.22464679914735E-16));
#164=DIRECTION('center_axis',(0.,1.,0.));
#165=DIRECTION('ref_axis',(1.,0.,1.22464679914735E-16));
#166=DIRECTION('center_axis',(0.,1.,0.));
#167=DIRECTION('ref_axis',(-1.,0.,0.));
#168=DIRECTION('',(0.,-1.,0.));
#169=DIRECTION('center_axis',(0.,1.,0.));
#170=DIRECTION('ref_axis',(-1.,0.,0.));
#171=DIRECTION('center_axis',(0.,1.,0.));
#172=DIRECTION('ref_axis',(0.,0.,1.));
#173=DIRECTION('center_axis',(0.,1.,0.));
#174=DIRECTION('ref_axis',(-1.,0.,0.));
#175=DIRECTION('center_axis',(0.,1.,0.));
#176=DIRECTION('ref_axis',(-1.,0.,0.));
#177=DIRECTION('',(0.,1.,0.));
#178=DIRECTION('center_axis',(0.,-1.,0.));
#179=DIRECTION('ref_axis',(-1.,0.,0.));
#180=DIRECTION('center_axis',(0.,1.,0.));
#181=DIRECTION('ref_axis',(0.,0.,1.));
#182=DIRECTION('center_axis',(0.,1.,0.));
#183=DIRECTION('ref_axis',(0.,0.,1.));
#184=CARTESIAN_POINT('',(0.,0.,0.));
#185=CARTESIAN_POINT('Origin',(0.,22.,0.));
#186=CARTESIAN_POINT('',(-17.1,22.,-2.09414602654197E-15));
#187=CARTESIAN_POINT('Origin',(0.,22.,0.));
#188=CARTESIAN_POINT('',(-17.1,20.5,2.09414602654197E-15));
#189=CARTESIAN_POINT('',(-17.1,22.,-2.09414602654197E-15));
#190=CARTESIAN_POINT('Origin',(0.,20.5,0.));
#191=CARTESIAN_POINT('Origin',(0.,17.,0.));
#192=CARTESIAN_POINT('',(-5.81707229594993E-15,22.,-47.5));
#193=CARTESIAN_POINT('Origin',(0.,22.,0.));
#194=CARTESIAN_POINT('',(-6.4293956955236E-15,17.,-52.5));
#195=CARTESIAN_POINT('Origin',(-5.81707229594993E-15,17.,-47.5));
#196=CARTESIAN_POINT('',(52.5,17.,-6.4293956955236E-15));
#197=CARTESIAN_POINT('Origin',(0.,17.,0.));
#198=CARTESIAN_POINT('Origin',(0.,17.,0.));
#199=CARTESIAN_POINT('Origin',(0.,0.,0.));
#200=CARTESIAN_POINT('',(52.5,0.,-6.4293956955236E-15));
#201=CARTESIAN_POINT('',(52.5,0.,-6.4293956955236E-15));
#202=CARTESIAN_POINT('Origin',(0.,0.,0.));
#203=CARTESIAN_POINT('Origin',(0.,22.,0.));
#204=CARTESIAN_POINT('Origin',(0.,0.,0.));
#205=CARTESIAN_POINT('',(51.,0.,6.2456986756515E-15));
#206=CARTESIAN_POINT('Origin',(0.,0.,0.));
#207=CARTESIAN_POINT('',(51.,20.5,6.2456986756515E-15));
#208=CARTESIAN_POINT('',(51.,0.,-6.2456986756515E-15));
#209=CARTESIAN_POINT('Origin',(0.,20.5,0.));
#210=CARTESIAN_POINT('Origin',(0.,20.5,0.));
#211=CARTESIAN_POINT('Origin',(0.,0.,0.));
#212=UNCERTAINTY_MEASURE_WITH_UNIT(LENGTH_MEASURE(0.01),#216,
'DISTANCE_ACCURACY_VALUE',
'Maximum model space distance between geometric entities at asserted c
onnectivities');
#213=UNCERTAINTY_MEASURE_WITH_UNIT(LENGTH_MEASURE(0.01),#216,
'DISTANCE_ACCURACY_VALUE',
'Maximum model space distance between geometric entities at asserted c
onnectivities');
#214=(
GEOMETRIC_REPRESENTATION_CONTEXT(3)
GLOBAL_UNCERTAINTY_ASSIGNED_CONTEXT((#212))
GLOBAL_UNIT_ASSIGNED_CONTEXT((#216,#218,#219))
REPRESENTATION_CONTEXT('','3D')
);
#215=(
GEOMETRIC_REPRESENTATION_CONTEXT(3)
GLOBAL_UNCERTAINTY_ASSIGNED_CONTEXT((#213))
GLOBAL_UNIT_ASSIGNED_CONTEXT((#216,#218,#219))
REPRESENTATION_CONTEXT('','3D')
);
#216=(
LENGTH_UNIT()
NAMED_UNIT(*)
SI_UNIT(.MILLI.,.METRE.)
);
#217=(
LENGTH_UNIT()
NAMED_UNIT(*)
SI_UNIT(.CENTI.,.METRE.)
);
#218=(
NAMED_UNIT(*)
PLANE_ANGLE_UNIT()
SI_UNIT($,.RADIAN.)
);
#219=(
NAMED_UNIT(*)
SI_UNIT($,.STERADIAN.)
SOLID_ANGLE_UNIT()
);
#220=SHAPE_DEFINITION_REPRESENTATION(#221,#222);
#221=PRODUCT_DEFINITION_SHAPE('',$,#224);
#222=SHAPE_REPRESENTATION('',(#130),#214);
#223=PRODUCT_DEFINITION_CONTEXT('part definition',#228,'design');
#224=PRODUCT_DEFINITION('41212','41212',#225,#223);
#225=PRODUCT_DEFINITION_FORMATION('',$,#230);
#226=PRODUCT_RELATED_PRODUCT_CATEGORY('41212','41212',(#230));
#227=APPLICATION_PROTOCOL_DEFINITION('international standard',
'automotive_design',2009,#228);
#228=APPLICATION_CONTEXT(
'Core Data for Automotive Mechanical Design Process');
#229=PRODUCT_CONTEXT('part definition',#228,'mechanical');
#230=PRODUCT('41212','41212',$,(#229));
#231=PRESENTATION_STYLE_ASSIGNMENT((#232));
#232=SURFACE_STYLE_USAGE(.BOTH.,#235);
#233=SURFACE_STYLE_RENDERING_WITH_PROPERTIES($,#239,(#234));
#234=SURFACE_STYLE_TRANSPARENT(0.);
#235=SURFACE_SIDE_STYLE('',(#236,#233));
#236=SURFACE_STYLE_FILL_AREA(#237);
#237=FILL_AREA_STYLE('',(#238));
#238=FILL_AREA_STYLE_COLOUR('',#239);
#239=COLOUR_RGB('',0.956862745098039,0.956862745098039,0.956862745098039);
ENDSEC;
END-ISO-10303-21;
