ISO-10303-21;
HEADER;
/* Generated by software containing ST-Developer
 * from STEP Tools, Inc. (www.steptools.com) 
 */

FILE_DESCRIPTION(
/* description */ (''),
/* implementation_level */ '2;1');

FILE_NAME(
/* name */ 
'C:\\Users\\O.Boryczka\\Desktop\\Korrigierte Zeichnungen\\Rohrb\X\F6ge
n V2A\\41315.ipt.step',
/* time_stamp */ '2022-07-18T12:56:18+02:00',
/* author */ ('Abt. Technik'),
/* organization */ (''),
/* preprocessor_version */ 'ST-DEVELOPER v18.1',
/* originating_system */ 'Autodesk Inventor 2022',
/* authorisation */ '');

FILE_SCHEMA (('AUTOMOTIVE_DESIGN { 1 0 10303 214 3 1 1 }'));
ENDSEC;

DATA;
#10=MECHANICAL_DESIGN_GEOMETRIC_PRESENTATION_REPRESENTATION('',(#13),#136);
#11=SHAPE_REPRESENTATION_RELATIONSHIP('SRR','None',#143,#12);
#12=ADVANCED_BREP_SHAPE_REPRESENTATION('',(#14),#135);
#13=STYLED_ITEM('',(#152),#14);
#14=MANIFOLD_SOLID_BREP('Volumenk\X\F6rper1',#63);
#15=FACE_BOUND('',#26,.T.);
#16=FACE_BOUND('',#28,.T.);
#17=PLANE('',#94);
#18=PLANE('',#95);
#19=FACE_OUTER_BOUND('',#23,.T.);
#20=FACE_OUTER_BOUND('',#24,.T.);
#21=FACE_OUTER_BOUND('',#25,.T.);
#22=FACE_OUTER_BOUND('',#27,.T.);
#23=EDGE_LOOP('',(#45,#46,#47,#48));
#24=EDGE_LOOP('',(#49,#50,#51,#52));
#25=EDGE_LOOP('',(#53));
#26=EDGE_LOOP('',(#54));
#27=EDGE_LOOP('',(#55));
#28=EDGE_LOOP('',(#56));
#29=CIRCLE('',#87,14.85);
#30=CIRCLE('',#88,23.15);
#31=CIRCLE('',#89,14.85);
#32=CIRCLE('',#91,16.85);
#33=CIRCLE('',#92,21.15);
#34=CIRCLE('',#93,16.85);
#35=VERTEX_POINT('',#120);
#36=VERTEX_POINT('',#122);
#37=VERTEX_POINT('',#126);
#38=VERTEX_POINT('',#128);
#39=EDGE_CURVE('',#35,#35,#29,.T.);
#40=EDGE_CURVE('',#35,#36,#30,.T.);
#41=EDGE_CURVE('',#36,#36,#31,.T.);
#42=EDGE_CURVE('',#37,#37,#32,.T.);
#43=EDGE_CURVE('',#37,#38,#33,.T.);
#44=EDGE_CURVE('',#38,#38,#34,.T.);
#45=ORIENTED_EDGE('',*,*,#39,.F.);
#46=ORIENTED_EDGE('',*,*,#40,.T.);
#47=ORIENTED_EDGE('',*,*,#41,.F.);
#48=ORIENTED_EDGE('',*,*,#40,.F.);
#49=ORIENTED_EDGE('',*,*,#42,.F.);
#50=ORIENTED_EDGE('',*,*,#43,.T.);
#51=ORIENTED_EDGE('',*,*,#44,.F.);
#52=ORIENTED_EDGE('',*,*,#43,.F.);
#53=ORIENTED_EDGE('',*,*,#42,.T.);
#54=ORIENTED_EDGE('',*,*,#41,.T.);
#55=ORIENTED_EDGE('',*,*,#44,.T.);
#56=ORIENTED_EDGE('',*,*,#39,.T.);
#57=TOROIDAL_SURFACE('',#86,38.,14.85);
#58=TOROIDAL_SURFACE('',#90,38.,16.85);
#59=ADVANCED_FACE('',(#19),#57,.F.);
#60=ADVANCED_FACE('',(#20),#58,.T.);
#61=ADVANCED_FACE('',(#21,#15),#17,.F.);
#62=ADVANCED_FACE('',(#22,#16),#18,.T.);
#63=CLOSED_SHELL('',(#59,#60,#61,#62));
#64=DERIVED_UNIT_ELEMENT(#67,1.);
#65=DERIVED_UNIT_ELEMENT(#138,-3.);
#66=DIMENSIONAL_EXPONENTS(1.,0.,0.,0.,0.,0.,0.);
#67=(
CONVERSION_BASED_UNIT('gram',#69)
MASS_UNIT()
NAMED_UNIT(#66)
);
#68=(
MASS_UNIT()
NAMED_UNIT(*)
SI_UNIT(.KILO.,.GRAM.)
);
#69=MASS_MEASURE_WITH_UNIT(MASS_MEASURE(0.001),#68);
#70=DERIVED_UNIT((#64,#65));
#71=MEASURE_REPRESENTATION_ITEM('density measure',
POSITIVE_RATIO_MEASURE(8.),#70);
#72=PROPERTY_DEFINITION_REPRESENTATION(#77,#74);
#73=PROPERTY_DEFINITION_REPRESENTATION(#78,#75);
#74=REPRESENTATION('material name',(#76),#135);
#75=REPRESENTATION('density',(#71),#135);
#76=DESCRIPTIVE_REPRESENTATION_ITEM('Edelstahl AISI 304',
'Edelstahl AISI 304');
#77=PROPERTY_DEFINITION('material property','material name',#145);
#78=PROPERTY_DEFINITION('material property','density of part',#145);
#79=DATE_TIME_ROLE('creation_date');
#80=APPLIED_DATE_AND_TIME_ASSIGNMENT(#81,#79,(#145));
#81=DATE_AND_TIME(#82,#83);
#82=CALENDAR_DATE(2021,10,6);
#83=LOCAL_TIME(0,0,0.,#84);
#84=COORDINATED_UNIVERSAL_TIME_OFFSET(0,0,.BEHIND.);
#85=AXIS2_PLACEMENT_3D('placement',#118,#96,#97);
#86=AXIS2_PLACEMENT_3D('',#119,#98,#99);
#87=AXIS2_PLACEMENT_3D('',#121,#100,#101);
#88=AXIS2_PLACEMENT_3D('',#123,#102,#103);
#89=AXIS2_PLACEMENT_3D('',#124,#104,#105);
#90=AXIS2_PLACEMENT_3D('',#125,#106,#107);
#91=AXIS2_PLACEMENT_3D('',#127,#108,#109);
#92=AXIS2_PLACEMENT_3D('',#129,#110,#111);
#93=AXIS2_PLACEMENT_3D('',#130,#112,#113);
#94=AXIS2_PLACEMENT_3D('',#131,#114,#115);
#95=AXIS2_PLACEMENT_3D('',#132,#116,#117);
#96=DIRECTION('axis',(0.,0.,1.));
#97=DIRECTION('refdir',(1.,0.,0.));
#98=DIRECTION('center_axis',(1.,0.,0.));
#99=DIRECTION('ref_axis',(0.,0.,-1.));
#100=DIRECTION('center_axis',(0.,1.,1.22464679914735E-16));
#101=DIRECTION('ref_axis',(0.,1.22464679914735E-16,-1.));
#102=DIRECTION('center_axis',(1.,0.,0.));
#103=DIRECTION('ref_axis',(0.,0.,-1.));
#104=DIRECTION('center_axis',(0.,1.,0.));
#105=DIRECTION('ref_axis',(0.,0.,1.));
#106=DIRECTION('center_axis',(1.,0.,0.));
#107=DIRECTION('ref_axis',(0.,0.,-1.));
#108=DIRECTION('center_axis',(0.,-1.,0.));
#109=DIRECTION('ref_axis',(-1.,0.,0.));
#110=DIRECTION('center_axis',(-1.,0.,0.));
#111=DIRECTION('ref_axis',(0.,0.,-1.));
#112=DIRECTION('center_axis',(0.,-1.,-1.22464679914735E-16));
#113=DIRECTION('ref_axis',(-1.,0.,0.));
#114=DIRECTION('center_axis',(0.,1.,0.));
#115=DIRECTION('ref_axis',(0.,0.,1.));
#116=DIRECTION('center_axis',(0.,-1.,-1.22464679914735E-16));
#117=DIRECTION('ref_axis',(0.,1.22464679914735E-16,-1.));
#118=CARTESIAN_POINT('',(0.,0.,0.));
#119=CARTESIAN_POINT('Origin',(0.,4.44089209850063E-15,38.));
#120=CARTESIAN_POINT('',(1.81860049673382E-15,7.27594943852675E-15,14.85));
#121=CARTESIAN_POINT('Origin',(0.,9.09454993526057E-15,-8.88178419700125E-15));
#122=CARTESIAN_POINT('',(-1.81860049673382E-15,4.44089209850063E-15,61.15));
#123=CARTESIAN_POINT('Origin',(-1.81860049673382E-15,4.44089209850063E-15,
38.));
#124=CARTESIAN_POINT('Origin',(0.,4.44089209850063E-15,76.));
#125=CARTESIAN_POINT('Origin',(0.,4.44089209850063E-15,38.));
#126=CARTESIAN_POINT('',(-2.06352985656329E-15,1.35354420337612E-14,59.15));
#127=CARTESIAN_POINT('Origin',(0.,1.35354420337612E-14,76.));
#128=CARTESIAN_POINT('',(-2.06352985656329E-15,-2.06352985656329E-15,16.85));
#129=CARTESIAN_POINT('Origin',(-2.06352985656329E-15,4.44089209850063E-15,
38.));
#130=CARTESIAN_POINT('Origin',(0.,1.97215226305253E-30,-8.88178419700125E-15));
#131=CARTESIAN_POINT('Origin',(0.,1.35354420337612E-14,76.));
#132=CARTESIAN_POINT('Origin',(0.,0.,0.));
#133=UNCERTAINTY_MEASURE_WITH_UNIT(LENGTH_MEASURE(0.01),#137,
'DISTANCE_ACCURACY_VALUE',
'Maximum model space distance between geometric entities at asserted c
onnectivities');
#134=UNCERTAINTY_MEASURE_WITH_UNIT(LENGTH_MEASURE(0.01),#137,
'DISTANCE_ACCURACY_VALUE',
'Maximum model space distance between geometric entities at asserted c
onnectivities');
#135=(
GEOMETRIC_REPRESENTATION_CONTEXT(3)
GLOBAL_UNCERTAINTY_ASSIGNED_CONTEXT((#133))
GLOBAL_UNIT_ASSIGNED_CONTEXT((#137,#139,#140))
REPRESENTATION_CONTEXT('','3D')
);
#136=(
GEOMETRIC_REPRESENTATION_CONTEXT(3)
GLOBAL_UNCERTAINTY_ASSIGNED_CONTEXT((#134))
GLOBAL_UNIT_ASSIGNED_CONTEXT((#137,#139,#140))
REPRESENTATION_CONTEXT('','3D')
);
#137=(
LENGTH_UNIT()
NAMED_UNIT(*)
SI_UNIT(.MILLI.,.METRE.)
);
#138=(
LENGTH_UNIT()
NAMED_UNIT(*)
SI_UNIT(.CENTI.,.METRE.)
);
#139=(
NAMED_UNIT(*)
PLANE_ANGLE_UNIT()
SI_UNIT($,.RADIAN.)
);
#140=(
NAMED_UNIT(*)
SI_UNIT($,.STERADIAN.)
SOLID_ANGLE_UNIT()
);
#141=SHAPE_DEFINITION_REPRESENTATION(#142,#143);
#142=PRODUCT_DEFINITION_SHAPE('',$,#145);
#143=SHAPE_REPRESENTATION('',(#85),#135);
#144=PRODUCT_DEFINITION_CONTEXT('part definition',#149,'design');
#145=PRODUCT_DEFINITION('41315','41315',#146,#144);
#146=PRODUCT_DEFINITION_FORMATION('',$,#151);
#147=PRODUCT_RELATED_PRODUCT_CATEGORY('41315','41315',(#151));
#148=APPLICATION_PROTOCOL_DEFINITION('international standard',
'automotive_design',2009,#149);
#149=APPLICATION_CONTEXT(
'Core Data for Automotive Mechanical Design Process');
#150=PRODUCT_CONTEXT('part definition',#149,'mechanical');
#151=PRODUCT('41315','41315',$,(#150));
#152=PRESENTATION_STYLE_ASSIGNMENT((#153));
#153=SURFACE_STYLE_USAGE(.BOTH.,#156);
#154=SURFACE_STYLE_RENDERING_WITH_PROPERTIES($,#160,(#155));
#155=SURFACE_STYLE_TRANSPARENT(0.);
#156=SURFACE_SIDE_STYLE('',(#157,#154));
#157=SURFACE_STYLE_FILL_AREA(#158);
#158=FILL_AREA_STYLE('',(#159));
#159=FILL_AREA_STYLE_COLOUR('',#160);
#160=COLOUR_RGB('',0.956862745098039,0.956862745098039,0.956862745098039);
ENDSEC;
END-ISO-10303-21;
