ISO-10303-21;
HEADER;
/* Generated by software containing ST-Developer
 * from STEP Tools, Inc. (www.steptools.com) 
 */

FILE_DESCRIPTION(
/* description */ (''),
/* implementation_level */ '2;1');

FILE_NAME(
/* name */ 
'C:\\Users\\O.Boryczka\\Desktop\\Korrigierte Zeichnungen\\Abschlusssto
pfen rund V2A\\IPT_Daten\\Abschlussstopfen Massiv\\41424.ipt.step',
/* time_stamp */ '2022-07-18T12:52:12+02:00',
/* author */ ('Abt. Technik'),
/* organization */ (''),
/* preprocessor_version */ 'ST-DEVELOPER v18.1',
/* originating_system */ 'Autodesk Inventor 2022',
/* authorisation */ '');

FILE_SCHEMA (('AUTOMOTIVE_DESIGN { 1 0 10303 214 3 1 1 }'));
ENDSEC;

DATA;
#10=MECHANICAL_DESIGN_GEOMETRIC_PRESENTATION_REPRESENTATION('',(#13),#305);
#11=SHAPE_REPRESENTATION_RELATIONSHIP('SRR','None',#312,#12);
#12=ADVANCED_BREP_SHAPE_REPRESENTATION('',(#14),#304);
#13=STYLED_ITEM('',(#321),#14);
#14=MANIFOLD_SOLID_BREP('Volumenk\X\F6rper1',#157);
#15=FACE_BOUND('',#36,.T.);
#16=PLANE('',#186);
#17=PLANE('',#187);
#18=PLANE('',#196);
#19=CYLINDRICAL_SURFACE('',#184,21.2);
#20=CYLINDRICAL_SURFACE('',#193,19.);
#21=CYLINDRICAL_SURFACE('',#197,19.);
#22=FACE_OUTER_BOUND('',#32,.T.);
#23=FACE_OUTER_BOUND('',#33,.T.);
#24=FACE_OUTER_BOUND('',#34,.T.);
#25=FACE_OUTER_BOUND('',#35,.T.);
#26=FACE_OUTER_BOUND('',#37,.T.);
#27=FACE_OUTER_BOUND('',#38,.T.);
#28=FACE_OUTER_BOUND('',#39,.T.);
#29=FACE_OUTER_BOUND('',#40,.T.);
#30=FACE_OUTER_BOUND('',#41,.T.);
#31=FACE_OUTER_BOUND('',#42,.T.);
#32=EDGE_LOOP('',(#103,#104,#105,#106,#107));
#33=EDGE_LOOP('',(#108,#109,#110,#111,#112));
#34=EDGE_LOOP('',(#113));
#35=EDGE_LOOP('',(#114));
#36=EDGE_LOOP('',(#115));
#37=EDGE_LOOP('',(#116,#117,#118,#119,#120));
#38=EDGE_LOOP('',(#121,#122,#123,#124,#125,#126));
#39=EDGE_LOOP('',(#127));
#40=EDGE_LOOP('',(#128,#129,#130,#131,#132));
#41=EDGE_LOOP('',(#133,#134,#135,#136,#137));
#42=EDGE_LOOP('',(#138,#139,#140,#141,#142));
#43=LINE('',#263,#50);
#44=LINE('',#269,#51);
#45=LINE('',#281,#52);
#46=LINE('',#288,#53);
#47=LINE('',#292,#54);
#48=LINE('',#299,#55);
#49=LINE('',#301,#56);
#50=VECTOR('',#209,20.45);
#51=VECTOR('',#216,21.2);
#52=VECTOR('',#231,18.5);
#53=VECTOR('',#240,19.);
#54=VECTOR('',#245,19.);
#55=VECTOR('',#254,19.5);
#56=VECTOR('',#257,19.5);
#57=CIRCLE('',#181,19.7);
#58=CIRCLE('',#182,21.2);
#59=CIRCLE('',#183,21.2);
#60=CIRCLE('',#185,21.2);
#61=CIRCLE('',#188,19.);
#62=CIRCLE('',#190,19.);
#63=CIRCLE('',#191,19.);
#64=CIRCLE('',#192,18.);
#65=CIRCLE('',#194,19.);
#66=CIRCLE('',#195,19.);
#67=CIRCLE('',#198,19.);
#68=CIRCLE('',#199,19.);
#69=CIRCLE('',#201,20.);
#70=VERTEX_POINT('',#260);
#71=VERTEX_POINT('',#262);
#72=VERTEX_POINT('',#264);
#73=VERTEX_POINT('',#268);
#74=VERTEX_POINT('',#273);
#75=VERTEX_POINT('',#276);
#76=VERTEX_POINT('',#277);
#77=VERTEX_POINT('',#280);
#78=VERTEX_POINT('',#284);
#79=VERTEX_POINT('',#285);
#80=VERTEX_POINT('',#291);
#81=VERTEX_POINT('',#293);
#82=VERTEX_POINT('',#297);
#83=EDGE_CURVE('',#70,#70,#57,.T.);
#84=EDGE_CURVE('',#70,#71,#43,.T.);
#85=EDGE_CURVE('',#71,#72,#58,.T.);
#86=EDGE_CURVE('',#72,#71,#59,.T.);
#87=EDGE_CURVE('',#72,#73,#44,.T.);
#88=EDGE_CURVE('',#73,#73,#60,.T.);
#89=EDGE_CURVE('',#74,#74,#61,.T.);
#90=EDGE_CURVE('',#75,#76,#62,.T.);
#91=EDGE_CURVE('',#76,#75,#63,.T.);
#92=EDGE_CURVE('',#75,#77,#45,.T.);
#93=EDGE_CURVE('',#77,#77,#64,.T.);
#94=EDGE_CURVE('',#78,#79,#65,.T.);
#95=EDGE_CURVE('',#79,#78,#66,.T.);
#96=EDGE_CURVE('',#79,#76,#46,.T.);
#97=EDGE_CURVE('',#74,#80,#47,.T.);
#98=EDGE_CURVE('',#80,#81,#67,.T.);
#99=EDGE_CURVE('',#81,#80,#68,.T.);
#100=EDGE_CURVE('',#82,#82,#69,.T.);
#101=EDGE_CURVE('',#82,#78,#48,.T.);
#102=EDGE_CURVE('',#81,#82,#49,.T.);
#103=ORIENTED_EDGE('',*,*,#83,.T.);
#104=ORIENTED_EDGE('',*,*,#84,.T.);
#105=ORIENTED_EDGE('',*,*,#85,.T.);
#106=ORIENTED_EDGE('',*,*,#86,.T.);
#107=ORIENTED_EDGE('',*,*,#84,.F.);
#108=ORIENTED_EDGE('',*,*,#85,.F.);
#109=ORIENTED_EDGE('',*,*,#86,.F.);
#110=ORIENTED_EDGE('',*,*,#87,.T.);
#111=ORIENTED_EDGE('',*,*,#88,.T.);
#112=ORIENTED_EDGE('',*,*,#87,.F.);
#113=ORIENTED_EDGE('',*,*,#83,.F.);
#114=ORIENTED_EDGE('',*,*,#88,.F.);
#115=ORIENTED_EDGE('',*,*,#89,.T.);
#116=ORIENTED_EDGE('',*,*,#90,.T.);
#117=ORIENTED_EDGE('',*,*,#91,.T.);
#118=ORIENTED_EDGE('',*,*,#92,.T.);
#119=ORIENTED_EDGE('',*,*,#93,.T.);
#120=ORIENTED_EDGE('',*,*,#92,.F.);
#121=ORIENTED_EDGE('',*,*,#94,.F.);
#122=ORIENTED_EDGE('',*,*,#95,.F.);
#123=ORIENTED_EDGE('',*,*,#96,.T.);
#124=ORIENTED_EDGE('',*,*,#90,.F.);
#125=ORIENTED_EDGE('',*,*,#91,.F.);
#126=ORIENTED_EDGE('',*,*,#96,.F.);
#127=ORIENTED_EDGE('',*,*,#93,.F.);
#128=ORIENTED_EDGE('',*,*,#89,.F.);
#129=ORIENTED_EDGE('',*,*,#97,.T.);
#130=ORIENTED_EDGE('',*,*,#98,.T.);
#131=ORIENTED_EDGE('',*,*,#99,.T.);
#132=ORIENTED_EDGE('',*,*,#97,.F.);
#133=ORIENTED_EDGE('',*,*,#100,.F.);
#134=ORIENTED_EDGE('',*,*,#101,.T.);
#135=ORIENTED_EDGE('',*,*,#94,.T.);
#136=ORIENTED_EDGE('',*,*,#95,.T.);
#137=ORIENTED_EDGE('',*,*,#101,.F.);
#138=ORIENTED_EDGE('',*,*,#98,.F.);
#139=ORIENTED_EDGE('',*,*,#99,.F.);
#140=ORIENTED_EDGE('',*,*,#102,.T.);
#141=ORIENTED_EDGE('',*,*,#100,.T.);
#142=ORIENTED_EDGE('',*,*,#102,.F.);
#143=CONICAL_SURFACE('',#180,20.45,0.785398163397448);
#144=CONICAL_SURFACE('',#189,18.5,0.785398163397449);
#145=CONICAL_SURFACE('',#200,19.5,1.10714871779409);
#146=CONICAL_SURFACE('',#202,19.5,1.10714871779409);
#147=ADVANCED_FACE('',(#22),#143,.T.);
#148=ADVANCED_FACE('',(#23),#19,.T.);
#149=ADVANCED_FACE('',(#24),#16,.T.);
#150=ADVANCED_FACE('',(#25,#15),#17,.F.);
#151=ADVANCED_FACE('',(#26),#144,.T.);
#152=ADVANCED_FACE('',(#27),#20,.T.);
#153=ADVANCED_FACE('',(#28),#18,.F.);
#154=ADVANCED_FACE('',(#29),#21,.T.);
#155=ADVANCED_FACE('',(#30),#145,.T.);
#156=ADVANCED_FACE('',(#31),#146,.T.);
#157=CLOSED_SHELL('',(#147,#148,#149,#150,#151,#152,#153,#154,#155,#156));
#158=DERIVED_UNIT_ELEMENT(#161,1.);
#159=DERIVED_UNIT_ELEMENT(#307,-3.);
#160=DIMENSIONAL_EXPONENTS(1.,0.,0.,0.,0.,0.,0.);
#161=(
CONVERSION_BASED_UNIT('gram',#163)
MASS_UNIT()
NAMED_UNIT(#160)
);
#162=(
MASS_UNIT()
NAMED_UNIT(*)
SI_UNIT(.KILO.,.GRAM.)
);
#163=MASS_MEASURE_WITH_UNIT(MASS_MEASURE(0.001),#162);
#164=DERIVED_UNIT((#158,#159));
#165=MEASURE_REPRESENTATION_ITEM('density measure',
POSITIVE_RATIO_MEASURE(8.),#164);
#166=PROPERTY_DEFINITION_REPRESENTATION(#171,#168);
#167=PROPERTY_DEFINITION_REPRESENTATION(#172,#169);
#168=REPRESENTATION('material name',(#170),#304);
#169=REPRESENTATION('density',(#165),#304);
#170=DESCRIPTIVE_REPRESENTATION_ITEM('Edelstahl AISI 304',
'Edelstahl AISI 304');
#171=PROPERTY_DEFINITION('material property','material name',#314);
#172=PROPERTY_DEFINITION('material property','density of part',#314);
#173=DATE_TIME_ROLE('creation_date');
#174=APPLIED_DATE_AND_TIME_ASSIGNMENT(#175,#173,(#314));
#175=DATE_AND_TIME(#176,#177);
#176=CALENDAR_DATE(2021,11,5);
#177=LOCAL_TIME(0,0,0.,#178);
#178=COORDINATED_UNIVERSAL_TIME_OFFSET(0,0,.BEHIND.);
#179=AXIS2_PLACEMENT_3D('placement',#258,#203,#204);
#180=AXIS2_PLACEMENT_3D('',#259,#205,#206);
#181=AXIS2_PLACEMENT_3D('',#261,#207,#208);
#182=AXIS2_PLACEMENT_3D('',#265,#210,#211);
#183=AXIS2_PLACEMENT_3D('',#266,#212,#213);
#184=AXIS2_PLACEMENT_3D('',#267,#214,#215);
#185=AXIS2_PLACEMENT_3D('',#270,#217,#218);
#186=AXIS2_PLACEMENT_3D('',#271,#219,#220);
#187=AXIS2_PLACEMENT_3D('',#272,#221,#222);
#188=AXIS2_PLACEMENT_3D('',#274,#223,#224);
#189=AXIS2_PLACEMENT_3D('',#275,#225,#226);
#190=AXIS2_PLACEMENT_3D('',#278,#227,#228);
#191=AXIS2_PLACEMENT_3D('',#279,#229,#230);
#192=AXIS2_PLACEMENT_3D('',#282,#232,#233);
#193=AXIS2_PLACEMENT_3D('',#283,#234,#235);
#194=AXIS2_PLACEMENT_3D('',#286,#236,#237);
#195=AXIS2_PLACEMENT_3D('',#287,#238,#239);
#196=AXIS2_PLACEMENT_3D('',#289,#241,#242);
#197=AXIS2_PLACEMENT_3D('',#290,#243,#244);
#198=AXIS2_PLACEMENT_3D('',#294,#246,#247);
#199=AXIS2_PLACEMENT_3D('',#295,#248,#249);
#200=AXIS2_PLACEMENT_3D('',#296,#250,#251);
#201=AXIS2_PLACEMENT_3D('',#298,#252,#253);
#202=AXIS2_PLACEMENT_3D('',#300,#255,#256);
#203=DIRECTION('axis',(0.,0.,1.));
#204=DIRECTION('refdir',(1.,0.,0.));
#205=DIRECTION('center_axis',(0.,-1.,0.));
#206=DIRECTION('ref_axis',(-1.,0.,0.));
#207=DIRECTION('center_axis',(0.,-1.,0.));
#208=DIRECTION('ref_axis',(-1.,0.,0.));
#209=DIRECTION('',(0.707106781186547,-0.707106781186548,-8.65956056235493E-17));
#210=DIRECTION('center_axis',(0.,1.,0.));
#211=DIRECTION('ref_axis',(-1.,0.,0.));
#212=DIRECTION('center_axis',(0.,1.,0.));
#213=DIRECTION('ref_axis',(-1.,0.,0.));
#214=DIRECTION('center_axis',(0.,1.,0.));
#215=DIRECTION('ref_axis',(1.,0.,0.));
#216=DIRECTION('',(0.,-1.,0.));
#217=DIRECTION('center_axis',(0.,1.,0.));
#218=DIRECTION('ref_axis',(1.,0.,0.));
#219=DIRECTION('center_axis',(0.,1.,0.));
#220=DIRECTION('ref_axis',(0.,0.,1.));
#221=DIRECTION('center_axis',(0.,1.,0.));
#222=DIRECTION('ref_axis',(0.,0.,1.));
#223=DIRECTION('center_axis',(0.,1.,0.));
#224=DIRECTION('ref_axis',(1.,0.,0.));
#225=DIRECTION('center_axis',(0.,1.,0.));
#226=DIRECTION('ref_axis',(1.,0.,0.));
#227=DIRECTION('center_axis',(0.,-1.,0.));
#228=DIRECTION('ref_axis',(1.,0.,0.));
#229=DIRECTION('center_axis',(0.,-1.,0.));
#230=DIRECTION('ref_axis',(1.,0.,0.));
#231=DIRECTION('',(0.707106781186548,-0.707106781186547,-8.65956056235494E-17));
#232=DIRECTION('center_axis',(0.,1.,0.));
#233=DIRECTION('ref_axis',(1.,0.,0.));
#234=DIRECTION('center_axis',(0.,1.,0.));
#235=DIRECTION('ref_axis',(-1.,0.,0.));
#236=DIRECTION('center_axis',(0.,1.,0.));
#237=DIRECTION('ref_axis',(-1.,0.,0.));
#238=DIRECTION('center_axis',(0.,1.,0.));
#239=DIRECTION('ref_axis',(-1.,0.,0.));
#240=DIRECTION('',(0.,-1.,0.));
#241=DIRECTION('center_axis',(0.,1.,0.));
#242=DIRECTION('ref_axis',(0.,0.,1.));
#243=DIRECTION('center_axis',(0.,1.,0.));
#244=DIRECTION('ref_axis',(1.,0.,0.));
#245=DIRECTION('',(0.,-1.,0.));
#246=DIRECTION('center_axis',(0.,1.,0.));
#247=DIRECTION('ref_axis',(1.,0.,0.));
#248=DIRECTION('center_axis',(0.,1.,0.));
#249=DIRECTION('ref_axis',(1.,0.,0.));
#250=DIRECTION('center_axis',(0.,1.,0.));
#251=DIRECTION('ref_axis',(0.,0.,1.));
#252=DIRECTION('center_axis',(0.,1.,0.));
#253=DIRECTION('ref_axis',(1.,0.,0.));
#254=DIRECTION('',(1.09535739652841E-16,-0.447213595499956,0.894427190999917));
#255=DIRECTION('center_axis',(0.,-1.,0.));
#256=DIRECTION('ref_axis',(0.,0.,1.));
#257=DIRECTION('',(-1.09535739652841E-16,-0.447213595499957,-0.894427190999916));
#258=CARTESIAN_POINT('',(0.,0.,0.));
#259=CARTESIAN_POINT('Origin',(0.,8.75,0.));
#260=CARTESIAN_POINT('',(19.7,9.5,2.41255419432029E-15));
#261=CARTESIAN_POINT('Origin',(0.,9.5,0.));
#262=CARTESIAN_POINT('',(21.2,8.,-2.59625121419239E-15));
#263=CARTESIAN_POINT('',(20.45,8.75,-2.50440270425634E-15));
#264=CARTESIAN_POINT('',(-21.2,8.,2.59625121419239E-15));
#265=CARTESIAN_POINT('Origin',(0.,8.,0.));
#266=CARTESIAN_POINT('Origin',(0.,8.,0.));
#267=CARTESIAN_POINT('Origin',(0.,5.,0.));
#268=CARTESIAN_POINT('',(-21.2,5.,2.59625121419239E-15));
#269=CARTESIAN_POINT('',(-21.2,5.,2.59625121419239E-15));
#270=CARTESIAN_POINT('Origin',(0.,5.,0.));
#271=CARTESIAN_POINT('Origin',(0.,9.5,0.));
#272=CARTESIAN_POINT('Origin',(0.,5.,0.));
#273=CARTESIAN_POINT('',(-19.,5.,2.32682891837997E-15));
#274=CARTESIAN_POINT('Origin',(0.,5.,0.));
#275=CARTESIAN_POINT('Origin',(0.,0.5,0.));
#276=CARTESIAN_POINT('',(-19.,1.,-2.32682891837997E-15));
#277=CARTESIAN_POINT('',(19.,1.,-2.32682891837997E-15));
#278=CARTESIAN_POINT('Origin',(0.,1.,0.));
#279=CARTESIAN_POINT('Origin',(0.,1.,0.));
#280=CARTESIAN_POINT('',(-18.,0.,2.20436423846524E-15));
#281=CARTESIAN_POINT('',(-18.5,0.5,2.2655965784226E-15));
#282=CARTESIAN_POINT('Origin',(0.,0.,0.));
#283=CARTESIAN_POINT('Origin',(0.,0.,0.));
#284=CARTESIAN_POINT('',(-2.32682891837997E-15,2.5,-19.));
#285=CARTESIAN_POINT('',(19.,2.5,-2.32682891837997E-15));
#286=CARTESIAN_POINT('Origin',(0.,2.5,0.));
#287=CARTESIAN_POINT('Origin',(0.,2.5,0.));
#288=CARTESIAN_POINT('',(19.,0.,-2.32682891837997E-15));
#289=CARTESIAN_POINT('Origin',(0.,0.,0.));
#290=CARTESIAN_POINT('Origin',(0.,3.5,0.));
#291=CARTESIAN_POINT('',(-19.,3.5,2.32682891837997E-15));
#292=CARTESIAN_POINT('',(-19.,3.5,2.32682891837997E-15));
#293=CARTESIAN_POINT('',(-2.32682891837997E-15,3.5,-19.));
#294=CARTESIAN_POINT('Origin',(0.,3.5,0.));
#295=CARTESIAN_POINT('Origin',(0.,3.5,0.));
#296=CARTESIAN_POINT('Origin',(0.,2.75,0.));
#297=CARTESIAN_POINT('',(-2.44929359829471E-15,3.,-20.));
#298=CARTESIAN_POINT('Origin',(0.,3.,0.));
#299=CARTESIAN_POINT('',(-2.38806125833734E-15,2.75,-19.5));
#300=CARTESIAN_POINT('Origin',(0.,3.25,0.));
#301=CARTESIAN_POINT('',(-2.38806125833734E-15,3.25,-19.5));
#302=UNCERTAINTY_MEASURE_WITH_UNIT(LENGTH_MEASURE(0.01),#306,
'DISTANCE_ACCURACY_VALUE',
'Maximum model space distance between geometric entities at asserted c
onnectivities');
#303=UNCERTAINTY_MEASURE_WITH_UNIT(LENGTH_MEASURE(0.01),#306,
'DISTANCE_ACCURACY_VALUE',
'Maximum model space distance between geometric entities at asserted c
onnectivities');
#304=(
GEOMETRIC_REPRESENTATION_CONTEXT(3)
GLOBAL_UNCERTAINTY_ASSIGNED_CONTEXT((#302))
GLOBAL_UNIT_ASSIGNED_CONTEXT((#306,#308,#309))
REPRESENTATION_CONTEXT('','3D')
);
#305=(
GEOMETRIC_REPRESENTATION_CONTEXT(3)
GLOBAL_UNCERTAINTY_ASSIGNED_CONTEXT((#303))
GLOBAL_UNIT_ASSIGNED_CONTEXT((#306,#308,#309))
REPRESENTATION_CONTEXT('','3D')
);
#306=(
LENGTH_UNIT()
NAMED_UNIT(*)
SI_UNIT(.MILLI.,.METRE.)
);
#307=(
LENGTH_UNIT()
NAMED_UNIT(*)
SI_UNIT(.CENTI.,.METRE.)
);
#308=(
NAMED_UNIT(*)
PLANE_ANGLE_UNIT()
SI_UNIT($,.RADIAN.)
);
#309=(
NAMED_UNIT(*)
SI_UNIT($,.STERADIAN.)
SOLID_ANGLE_UNIT()
);
#310=SHAPE_DEFINITION_REPRESENTATION(#311,#312);
#311=PRODUCT_DEFINITION_SHAPE('',$,#314);
#312=SHAPE_REPRESENTATION('',(#179),#304);
#313=PRODUCT_DEFINITION_CONTEXT('part definition',#318,'design');
#314=PRODUCT_DEFINITION('41424','41424',#315,#313);
#315=PRODUCT_DEFINITION_FORMATION('',$,#320);
#316=PRODUCT_RELATED_PRODUCT_CATEGORY('41424','41424',(#320));
#317=APPLICATION_PROTOCOL_DEFINITION('international standard',
'automotive_design',2009,#318);
#318=APPLICATION_CONTEXT(
'Core Data for Automotive Mechanical Design Process');
#319=PRODUCT_CONTEXT('part definition',#318,'mechanical');
#320=PRODUCT('41424','41424',$,(#319));
#321=PRESENTATION_STYLE_ASSIGNMENT((#322));
#322=SURFACE_STYLE_USAGE(.BOTH.,#325);
#323=SURFACE_STYLE_RENDERING_WITH_PROPERTIES($,#329,(#324));
#324=SURFACE_STYLE_TRANSPARENT(0.);
#325=SURFACE_SIDE_STYLE('',(#326,#323));
#326=SURFACE_STYLE_FILL_AREA(#327);
#327=FILL_AREA_STYLE('',(#328));
#328=FILL_AREA_STYLE_COLOUR('',#329);
#329=COLOUR_RGB('',0.956862745098039,0.956862745098039,0.956862745098039);
ENDSEC;
END-ISO-10303-21;
