ISO-10303-21;
HEADER;
/* Generated by software containing ST-Developer
 * from STEP Tools, Inc. (www.steptools.com) 
 */

FILE_DESCRIPTION(
/* description */ (''),
/* implementation_level */ '2;1');

FILE_NAME(
/* name */ 
'C:\\Users\\O.Boryczka\\Desktop\\Korrigierte Zeichnungen\\Handlauftr\X\E4
gerst\X\FCtze V2A\\IPT_Daten\\41462.ipt.step',
/* time_stamp */ '2022-07-18T12:55:04+02:00',
/* author */ ('Nutzer'),
/* organization */ (''),
/* preprocessor_version */ 'ST-DEVELOPER v18.1',
/* originating_system */ 'Autodesk Inventor 2022',
/* authorisation */ '');

FILE_SCHEMA (('AUTOMOTIVE_DESIGN { 1 0 10303 214 3 1 1 }'));
ENDSEC;

DATA;
#10=MECHANICAL_DESIGN_GEOMETRIC_PRESENTATION_REPRESENTATION('',(#13),#300);
#11=SHAPE_REPRESENTATION_RELATIONSHIP('SRR','None',#307,#12);
#12=ADVANCED_BREP_SHAPE_REPRESENTATION('',(#14),#299);
#13=STYLED_ITEM('',(#316),#14);
#14=MANIFOLD_SOLID_BREP('Volumenk\X\F6rper1',#155);
#15=FACE_BOUND('',#42,.T.);
#16=FACE_BOUND('',#47,.T.);
#17=FACE_BOUND('',#51,.T.);
#18=PLANE('',#184);
#19=PLANE('',#185);
#20=PLANE('',#195);
#21=PLANE('',#197);
#22=PLANE('',#200);
#23=CYLINDRICAL_SURFACE('',#182,4.);
#24=CYLINDRICAL_SURFACE('',#187,3.);
#25=CYLINDRICAL_SURFACE('',#193,3.);
#26=CYLINDRICAL_SURFACE('',#198,6.);
#27=FACE_OUTER_BOUND('',#38,.T.);
#28=FACE_OUTER_BOUND('',#39,.T.);
#29=FACE_OUTER_BOUND('',#40,.T.);
#30=FACE_OUTER_BOUND('',#41,.T.);
#31=FACE_OUTER_BOUND('',#43,.T.);
#32=FACE_OUTER_BOUND('',#44,.T.);
#33=FACE_OUTER_BOUND('',#45,.T.);
#34=FACE_OUTER_BOUND('',#46,.T.);
#35=FACE_OUTER_BOUND('',#48,.T.);
#36=FACE_OUTER_BOUND('',#49,.T.);
#37=FACE_OUTER_BOUND('',#50,.T.);
#38=EDGE_LOOP('',(#106,#107,#108,#109,#110));
#39=EDGE_LOOP('',(#111,#112,#113,#114,#115));
#40=EDGE_LOOP('',(#116));
#41=EDGE_LOOP('',(#117));
#42=EDGE_LOOP('',(#118));
#43=EDGE_LOOP('',(#119,#120,#121,#122));
#44=EDGE_LOOP('',(#123,#124,#125,#126,#127));
#45=EDGE_LOOP('',(#128,#129,#130,#131,#132));
#46=EDGE_LOOP('',(#133));
#47=EDGE_LOOP('',(#134));
#48=EDGE_LOOP('',(#135));
#49=EDGE_LOOP('',(#136,#137,#138,#139));
#50=EDGE_LOOP('',(#140));
#51=EDGE_LOOP('',(#141));
#52=LINE('',#260,#58);
#53=LINE('',#266,#59);
#54=LINE('',#274,#60);
#55=LINE('',#280,#61);
#56=LINE('',#286,#62);
#57=LINE('',#295,#63);
#58=VECTOR('',#207,3.75);
#59=VECTOR('',#214,4.);
#60=VECTOR('',#225,3.);
#61=VECTOR('',#232,4.25);
#62=VECTOR('',#239,3.);
#63=VECTOR('',#252,6.);
#64=CIRCLE('',#179,3.5);
#65=CIRCLE('',#180,4.);
#66=CIRCLE('',#181,4.);
#67=CIRCLE('',#183,4.);
#68=CIRCLE('',#186,3.);
#69=CIRCLE('',#188,3.);
#70=CIRCLE('',#190,5.5);
#71=CIRCLE('',#191,3.);
#72=CIRCLE('',#192,3.);
#73=CIRCLE('',#194,3.);
#74=CIRCLE('',#196,6.);
#75=CIRCLE('',#199,6.);
#76=VERTEX_POINT('',#257);
#77=VERTEX_POINT('',#259);
#78=VERTEX_POINT('',#261);
#79=VERTEX_POINT('',#265);
#80=VERTEX_POINT('',#270);
#81=VERTEX_POINT('',#273);
#82=VERTEX_POINT('',#277);
#83=VERTEX_POINT('',#279);
#84=VERTEX_POINT('',#281);
#85=VERTEX_POINT('',#285);
#86=VERTEX_POINT('',#289);
#87=VERTEX_POINT('',#293);
#88=EDGE_CURVE('',#76,#76,#64,.T.);
#89=EDGE_CURVE('',#76,#77,#52,.T.);
#90=EDGE_CURVE('',#77,#78,#65,.T.);
#91=EDGE_CURVE('',#78,#77,#66,.T.);
#92=EDGE_CURVE('',#78,#79,#53,.T.);
#93=EDGE_CURVE('',#79,#79,#67,.T.);
#94=EDGE_CURVE('',#80,#80,#68,.T.);
#95=EDGE_CURVE('',#80,#81,#54,.T.);
#96=EDGE_CURVE('',#81,#81,#69,.T.);
#97=EDGE_CURVE('',#82,#82,#70,.T.);
#98=EDGE_CURVE('',#82,#83,#55,.T.);
#99=EDGE_CURVE('',#83,#84,#71,.T.);
#100=EDGE_CURVE('',#84,#83,#72,.T.);
#101=EDGE_CURVE('',#84,#85,#56,.T.);
#102=EDGE_CURVE('',#85,#85,#73,.T.);
#103=EDGE_CURVE('',#86,#86,#74,.T.);
#104=EDGE_CURVE('',#87,#87,#75,.T.);
#105=EDGE_CURVE('',#87,#86,#57,.T.);
#106=ORIENTED_EDGE('',*,*,#88,.T.);
#107=ORIENTED_EDGE('',*,*,#89,.T.);
#108=ORIENTED_EDGE('',*,*,#90,.T.);
#109=ORIENTED_EDGE('',*,*,#91,.T.);
#110=ORIENTED_EDGE('',*,*,#89,.F.);
#111=ORIENTED_EDGE('',*,*,#90,.F.);
#112=ORIENTED_EDGE('',*,*,#91,.F.);
#113=ORIENTED_EDGE('',*,*,#92,.T.);
#114=ORIENTED_EDGE('',*,*,#93,.T.);
#115=ORIENTED_EDGE('',*,*,#92,.F.);
#116=ORIENTED_EDGE('',*,*,#88,.F.);
#117=ORIENTED_EDGE('',*,*,#93,.F.);
#118=ORIENTED_EDGE('',*,*,#94,.T.);
#119=ORIENTED_EDGE('',*,*,#94,.F.);
#120=ORIENTED_EDGE('',*,*,#95,.T.);
#121=ORIENTED_EDGE('',*,*,#96,.F.);
#122=ORIENTED_EDGE('',*,*,#95,.F.);
#123=ORIENTED_EDGE('',*,*,#97,.T.);
#124=ORIENTED_EDGE('',*,*,#98,.T.);
#125=ORIENTED_EDGE('',*,*,#99,.T.);
#126=ORIENTED_EDGE('',*,*,#100,.T.);
#127=ORIENTED_EDGE('',*,*,#98,.F.);
#128=ORIENTED_EDGE('',*,*,#99,.F.);
#129=ORIENTED_EDGE('',*,*,#100,.F.);
#130=ORIENTED_EDGE('',*,*,#101,.T.);
#131=ORIENTED_EDGE('',*,*,#102,.T.);
#132=ORIENTED_EDGE('',*,*,#101,.F.);
#133=ORIENTED_EDGE('',*,*,#103,.F.);
#134=ORIENTED_EDGE('',*,*,#97,.F.);
#135=ORIENTED_EDGE('',*,*,#102,.F.);
#136=ORIENTED_EDGE('',*,*,#104,.F.);
#137=ORIENTED_EDGE('',*,*,#105,.T.);
#138=ORIENTED_EDGE('',*,*,#103,.T.);
#139=ORIENTED_EDGE('',*,*,#105,.F.);
#140=ORIENTED_EDGE('',*,*,#104,.T.);
#141=ORIENTED_EDGE('',*,*,#96,.T.);
#142=CONICAL_SURFACE('',#178,3.75,0.78539816339745);
#143=CONICAL_SURFACE('',#189,4.25,0.785398163397449);
#144=ADVANCED_FACE('',(#27),#142,.T.);
#145=ADVANCED_FACE('',(#28),#23,.T.);
#146=ADVANCED_FACE('',(#29),#18,.T.);
#147=ADVANCED_FACE('',(#30,#15),#19,.F.);
#148=ADVANCED_FACE('',(#31),#24,.T.);
#149=ADVANCED_FACE('',(#32),#143,.F.);
#150=ADVANCED_FACE('',(#33),#25,.F.);
#151=ADVANCED_FACE('',(#34,#16),#20,.F.);
#152=ADVANCED_FACE('',(#35),#21,.T.);
#153=ADVANCED_FACE('',(#36),#26,.T.);
#154=ADVANCED_FACE('',(#37,#17),#22,.T.);
#155=CLOSED_SHELL('',(#144,#145,#146,#147,#148,#149,#150,#151,#152,#153,
#154));
#156=DERIVED_UNIT_ELEMENT(#159,1.);
#157=DERIVED_UNIT_ELEMENT(#302,-3.);
#158=DIMENSIONAL_EXPONENTS(1.,0.,0.,0.,0.,0.,0.);
#159=(
CONVERSION_BASED_UNIT('gram',#161)
MASS_UNIT()
NAMED_UNIT(#158)
);
#160=(
MASS_UNIT()
NAMED_UNIT(*)
SI_UNIT(.KILO.,.GRAM.)
);
#161=MASS_MEASURE_WITH_UNIT(MASS_MEASURE(0.001),#160);
#162=DERIVED_UNIT((#156,#157));
#163=MEASURE_REPRESENTATION_ITEM('density measure',
POSITIVE_RATIO_MEASURE(8.),#162);
#164=PROPERTY_DEFINITION_REPRESENTATION(#169,#166);
#165=PROPERTY_DEFINITION_REPRESENTATION(#170,#167);
#166=REPRESENTATION('material name',(#168),#299);
#167=REPRESENTATION('density',(#163),#299);
#168=DESCRIPTIVE_REPRESENTATION_ITEM('Edelstahl AISI 304',
'Edelstahl AISI 304');
#169=PROPERTY_DEFINITION('material property','material name',#309);
#170=PROPERTY_DEFINITION('material property','density of part',#309);
#171=DATE_TIME_ROLE('creation_date');
#172=APPLIED_DATE_AND_TIME_ASSIGNMENT(#173,#171,(#309));
#173=DATE_AND_TIME(#174,#175);
#174=CALENDAR_DATE(2021,21,4);
#175=LOCAL_TIME(0,0,0.,#176);
#176=COORDINATED_UNIVERSAL_TIME_OFFSET(0,0,.BEHIND.);
#177=AXIS2_PLACEMENT_3D('placement',#255,#201,#202);
#178=AXIS2_PLACEMENT_3D('',#256,#203,#204);
#179=AXIS2_PLACEMENT_3D('',#258,#205,#206);
#180=AXIS2_PLACEMENT_3D('',#262,#208,#209);
#181=AXIS2_PLACEMENT_3D('',#263,#210,#211);
#182=AXIS2_PLACEMENT_3D('',#264,#212,#213);
#183=AXIS2_PLACEMENT_3D('',#267,#215,#216);
#184=AXIS2_PLACEMENT_3D('',#268,#217,#218);
#185=AXIS2_PLACEMENT_3D('',#269,#219,#220);
#186=AXIS2_PLACEMENT_3D('',#271,#221,#222);
#187=AXIS2_PLACEMENT_3D('',#272,#223,#224);
#188=AXIS2_PLACEMENT_3D('',#275,#226,#227);
#189=AXIS2_PLACEMENT_3D('',#276,#228,#229);
#190=AXIS2_PLACEMENT_3D('',#278,#230,#231);
#191=AXIS2_PLACEMENT_3D('',#282,#233,#234);
#192=AXIS2_PLACEMENT_3D('',#283,#235,#236);
#193=AXIS2_PLACEMENT_3D('',#284,#237,#238);
#194=AXIS2_PLACEMENT_3D('',#287,#240,#241);
#195=AXIS2_PLACEMENT_3D('',#288,#242,#243);
#196=AXIS2_PLACEMENT_3D('',#290,#244,#245);
#197=AXIS2_PLACEMENT_3D('',#291,#246,#247);
#198=AXIS2_PLACEMENT_3D('',#292,#248,#249);
#199=AXIS2_PLACEMENT_3D('',#294,#250,#251);
#200=AXIS2_PLACEMENT_3D('',#296,#253,#254);
#201=DIRECTION('axis',(0.,0.,1.));
#202=DIRECTION('refdir',(1.,0.,0.));
#203=DIRECTION('center_axis',(0.,-1.,0.));
#204=DIRECTION('ref_axis',(-1.,0.,0.));
#205=DIRECTION('center_axis',(0.,-1.,0.));
#206=DIRECTION('ref_axis',(-1.,0.,0.));
#207=DIRECTION('',(0.707106781186549,-0.707106781186546,-8.65956056235495E-17));
#208=DIRECTION('center_axis',(0.,1.,0.));
#209=DIRECTION('ref_axis',(-1.,0.,0.));
#210=DIRECTION('center_axis',(0.,1.,0.));
#211=DIRECTION('ref_axis',(-1.,0.,0.));
#212=DIRECTION('center_axis',(0.,1.,0.));
#213=DIRECTION('ref_axis',(1.,0.,0.));
#214=DIRECTION('',(0.,-1.,0.));
#215=DIRECTION('center_axis',(0.,1.,0.));
#216=DIRECTION('ref_axis',(1.,0.,0.));
#217=DIRECTION('center_axis',(0.,1.,0.));
#218=DIRECTION('ref_axis',(0.,0.,1.));
#219=DIRECTION('center_axis',(0.,1.,0.));
#220=DIRECTION('ref_axis',(0.,0.,1.));
#221=DIRECTION('center_axis',(0.,1.,0.));
#222=DIRECTION('ref_axis',(1.,0.,0.));
#223=DIRECTION('center_axis',(0.,1.,0.));
#224=DIRECTION('ref_axis',(1.,0.,0.));
#225=DIRECTION('',(0.,-1.,0.));
#226=DIRECTION('center_axis',(0.,-1.,0.));
#227=DIRECTION('ref_axis',(1.,0.,0.));
#228=DIRECTION('center_axis',(0.,-1.,0.));
#229=DIRECTION('ref_axis',(-1.,0.,0.));
#230=DIRECTION('center_axis',(0.,-1.,0.));
#231=DIRECTION('ref_axis',(-1.,0.,0.));
#232=DIRECTION('',(-0.707106781186548,0.707106781186547,-8.65956056235494E-17));
#233=DIRECTION('center_axis',(0.,1.,0.));
#234=DIRECTION('ref_axis',(-1.,0.,0.));
#235=DIRECTION('center_axis',(0.,1.,0.));
#236=DIRECTION('ref_axis',(-1.,0.,0.));
#237=DIRECTION('center_axis',(0.,1.,0.));
#238=DIRECTION('ref_axis',(1.,0.,0.));
#239=DIRECTION('',(0.,1.,0.));
#240=DIRECTION('center_axis',(0.,1.,0.));
#241=DIRECTION('ref_axis',(1.,0.,0.));
#242=DIRECTION('center_axis',(0.,1.,0.));
#243=DIRECTION('ref_axis',(0.,0.,1.));
#244=DIRECTION('center_axis',(0.,1.,0.));
#245=DIRECTION('ref_axis',(-1.,0.,0.));
#246=DIRECTION('center_axis',(0.,-1.,0.));
#247=DIRECTION('ref_axis',(0.,0.,-1.));
#248=DIRECTION('center_axis',(0.,1.,0.));
#249=DIRECTION('ref_axis',(-1.,0.,0.));
#250=DIRECTION('center_axis',(0.,1.,0.));
#251=DIRECTION('ref_axis',(-1.,0.,0.));
#252=DIRECTION('',(0.,-1.,0.));
#253=DIRECTION('center_axis',(0.,1.,0.));
#254=DIRECTION('ref_axis',(0.,0.,1.));
#255=CARTESIAN_POINT('',(0.,0.,0.));
#256=CARTESIAN_POINT('Origin',(0.,79.75,0.));
#257=CARTESIAN_POINT('',(3.5,80.,4.28626379701574E-16));
#258=CARTESIAN_POINT('Origin',(0.,80.,0.));
#259=CARTESIAN_POINT('',(4.,79.5,-4.89858719658941E-16));
#260=CARTESIAN_POINT('',(3.75,79.75,-4.59242549680257E-16));
#261=CARTESIAN_POINT('',(-4.,79.5,4.89858719658941E-16));
#262=CARTESIAN_POINT('Origin',(0.,79.5,0.));
#263=CARTESIAN_POINT('Origin',(0.,79.5,0.));
#264=CARTESIAN_POINT('Origin',(0.,72.,0.));
#265=CARTESIAN_POINT('',(-4.,72.,4.89858719658941E-16));
#266=CARTESIAN_POINT('',(-4.,72.,4.89858719658941E-16));
#267=CARTESIAN_POINT('Origin',(0.,72.,0.));
#268=CARTESIAN_POINT('Origin',(0.,80.,0.));
#269=CARTESIAN_POINT('Origin',(0.,72.,0.));
#270=CARTESIAN_POINT('',(-3.,72.,3.67394039744206E-16));
#271=CARTESIAN_POINT('Origin',(0.,72.,0.));
#272=CARTESIAN_POINT('Origin',(0.,70.,0.));
#273=CARTESIAN_POINT('',(-3.,70.,3.67394039744206E-16));
#274=CARTESIAN_POINT('',(-3.,70.,3.67394039744206E-16));
#275=CARTESIAN_POINT('Origin',(0.,70.,0.));
#276=CARTESIAN_POINT('Origin',(0.,1.25,0.));
#277=CARTESIAN_POINT('',(5.5,0.,6.73555739531044E-16));
#278=CARTESIAN_POINT('Origin',(0.,0.,0.));
#279=CARTESIAN_POINT('',(3.,2.5,-3.67394039744206E-16));
#280=CARTESIAN_POINT('',(4.25,1.25,5.20474889637625E-16));
#281=CARTESIAN_POINT('',(-3.,2.5,3.67394039744206E-16));
#282=CARTESIAN_POINT('Origin',(0.,2.5,0.));
#283=CARTESIAN_POINT('Origin',(0.,2.5,0.));
#284=CARTESIAN_POINT('Origin',(0.,0.,0.));
#285=CARTESIAN_POINT('',(-3.,17.,3.67394039744206E-16));
#286=CARTESIAN_POINT('',(-3.,0.,3.67394039744206E-16));
#287=CARTESIAN_POINT('Origin',(0.,17.,0.));
#288=CARTESIAN_POINT('Origin',(0.,0.,0.));
#289=CARTESIAN_POINT('',(6.,0.,-7.34788079488412E-16));
#290=CARTESIAN_POINT('Origin',(0.,0.,0.));
#291=CARTESIAN_POINT('Origin',(0.,17.,0.));
#292=CARTESIAN_POINT('Origin',(0.,0.,0.));
#293=CARTESIAN_POINT('',(6.,70.,-7.34788079488412E-16));
#294=CARTESIAN_POINT('Origin',(0.,70.,0.));
#295=CARTESIAN_POINT('',(6.,0.,-7.34788079488412E-16));
#296=CARTESIAN_POINT('Origin',(0.,70.,0.));
#297=UNCERTAINTY_MEASURE_WITH_UNIT(LENGTH_MEASURE(0.01),#301,
'DISTANCE_ACCURACY_VALUE',
'Maximum model space distance between geometric entities at asserted c
onnectivities');
#298=UNCERTAINTY_MEASURE_WITH_UNIT(LENGTH_MEASURE(0.01),#301,
'DISTANCE_ACCURACY_VALUE',
'Maximum model space distance between geometric entities at asserted c
onnectivities');
#299=(
GEOMETRIC_REPRESENTATION_CONTEXT(3)
GLOBAL_UNCERTAINTY_ASSIGNED_CONTEXT((#297))
GLOBAL_UNIT_ASSIGNED_CONTEXT((#301,#303,#304))
REPRESENTATION_CONTEXT('','3D')
);
#300=(
GEOMETRIC_REPRESENTATION_CONTEXT(3)
GLOBAL_UNCERTAINTY_ASSIGNED_CONTEXT((#298))
GLOBAL_UNIT_ASSIGNED_CONTEXT((#301,#303,#304))
REPRESENTATION_CONTEXT('','3D')
);
#301=(
LENGTH_UNIT()
NAMED_UNIT(*)
SI_UNIT(.MILLI.,.METRE.)
);
#302=(
LENGTH_UNIT()
NAMED_UNIT(*)
SI_UNIT(.CENTI.,.METRE.)
);
#303=(
NAMED_UNIT(*)
PLANE_ANGLE_UNIT()
SI_UNIT($,.RADIAN.)
);
#304=(
NAMED_UNIT(*)
SI_UNIT($,.STERADIAN.)
SOLID_ANGLE_UNIT()
);
#305=SHAPE_DEFINITION_REPRESENTATION(#306,#307);
#306=PRODUCT_DEFINITION_SHAPE('',$,#309);
#307=SHAPE_REPRESENTATION('',(#177),#299);
#308=PRODUCT_DEFINITION_CONTEXT('part definition',#313,'design');
#309=PRODUCT_DEFINITION('41462','41462',#310,#308);
#310=PRODUCT_DEFINITION_FORMATION('',$,#315);
#311=PRODUCT_RELATED_PRODUCT_CATEGORY('41462','41462',(#315));
#312=APPLICATION_PROTOCOL_DEFINITION('international standard',
'automotive_design',2009,#313);
#313=APPLICATION_CONTEXT(
'Core Data for Automotive Mechanical Design Process');
#314=PRODUCT_CONTEXT('part definition',#313,'mechanical');
#315=PRODUCT('41462','41462',$,(#314));
#316=PRESENTATION_STYLE_ASSIGNMENT((#317));
#317=SURFACE_STYLE_USAGE(.BOTH.,#320);
#318=SURFACE_STYLE_RENDERING_WITH_PROPERTIES($,#324,(#319));
#319=SURFACE_STYLE_TRANSPARENT(0.);
#320=SURFACE_SIDE_STYLE('',(#321,#318));
#321=SURFACE_STYLE_FILL_AREA(#322);
#322=FILL_AREA_STYLE('',(#323));
#323=FILL_AREA_STYLE_COLOUR('',#324);
#324=COLOUR_RGB('',0.956862745098039,0.956862745098039,0.956862745098039);
ENDSEC;
END-ISO-10303-21;
