ISO-10303-21;
HEADER;
/* Generated by software containing ST-Developer
 * from STEP Tools, Inc. (www.steptools.com) 
 */

FILE_DESCRIPTION(
/* description */ (''),
/* implementation_level */ '2;1');

FILE_NAME(
/* name */ 
'C:\\Users\\O.Boryczka\\Desktop\\Korrigierte Zeichnungen\\H\X\FClsen V
2A\\41581.ipt.step',
/* time_stamp */ '2022-07-18T12:55:11+02:00',
/* author */ ('Abt. Technik'),
/* organization */ (''),
/* preprocessor_version */ 'ST-DEVELOPER v18.1',
/* originating_system */ 'Autodesk Inventor 2022',
/* authorisation */ '');

FILE_SCHEMA (('AUTOMOTIVE_DESIGN { 1 0 10303 214 3 1 1 }'));
ENDSEC;

DATA;
#10=MECHANICAL_DESIGN_GEOMETRIC_PRESENTATION_REPRESENTATION('',(#13),#266);
#11=SHAPE_REPRESENTATION_RELATIONSHIP('SRR','None',#273,#12);
#12=ADVANCED_BREP_SHAPE_REPRESENTATION('',(#14),#265);
#13=STYLED_ITEM('',(#282),#14);
#14=MANIFOLD_SOLID_BREP('Volumenk\X\F6rper1',#75);
#15=LINE('',#260,#17);
#16=LINE('',#262,#18);
#17=VECTOR('',#116,15.85);
#18=VECTOR('',#119,16.85);
#19=B_SPLINE_CURVE_WITH_KNOTS('',3,(#129,#130,#131,#132,#133,#134,#135,
#136,#137,#138,#139,#140,#141,#142,#143,#144,#145,#146,#147,#148,#149,#150,
#151,#152,#153,#154,#155,#156,#157,#158,#159,#160,#161,#162,#163,#164,#165,
#166,#167,#168,#169,#170,#171,#172,#173,#174,#175,#176,#177,#178),
 .UNSPECIFIED.,.F.,.F.,(4,2,2,2,2,2,2,2,2,2,2,2,2,2,2,2,2,2,2,2,2,2,2,2,
4),(0.,0.344821121814808,0.689642243629616,1.03446336544442,1.37928448725923,
1.71381202454222,2.04833956182522,2.38286709910821,2.7173946363912,3.05192217367419,
3.38644971095719,3.72097724824018,4.05550478552317,4.40032590733798,4.74514702915279,
5.08996815096759,5.4347892727824,5.77961039459721,6.12443151641202,6.46925263822683,
6.81407376004163,7.14860129732463,7.48312883460762,7.81765637189061,8.1521839091736),
 .UNSPECIFIED.);
#20=B_SPLINE_CURVE_WITH_KNOTS('',3,(#179,#180,#181,#182,#183,#184,#185,
#186,#187,#188,#189,#190,#191,#192,#193,#194,#195,#196),.UNSPECIFIED.,.F.,
 .F.,(4,2,2,2,2,2,2,2,4),(8.1521839091736,8.4867114464566,8.82123898373959,
9.15576652102258,9.49029405830557,9.83511518012038,10.1799363019352,10.52475742375,
10.8695785455648),.UNSPECIFIED.);
#21=B_SPLINE_CURVE_WITH_KNOTS('',3,(#199,#200,#201,#202,#203,#204,#205,
#206,#207,#208,#209,#210,#211,#212,#213,#214,#215,#216,#217,#218,#219,#220,
#221,#222,#223,#224,#225,#226,#227,#228,#229,#230,#231,#232,#233,#234,#235,
#236,#237,#238,#239,#240,#241,#242),.UNSPECIFIED.,.F.,.F.,(4,2,2,2,2,2,
2,2,2,2,2,2,2,2,2,2,2,2,2,2,2,4),(0.,0.319062296816491,0.638124593632981,
1.27624918726596,1.58872234077603,1.90119549428611,2.21366864779618,2.52614180130625,
2.83861495481633,3.1510881083264,3.46356126183647,3.77603441534654,4.41415900897952,
4.73322130579601,5.0522836026125,5.371345899429,5.69040819624549,6.32853278987847,
6.64100594338854,6.95347909689861,7.26595225040868,7.57842540391876),
 .UNSPECIFIED.);
#22=B_SPLINE_CURVE_WITH_KNOTS('',3,(#243,#244,#245,#246,#247,#248,#249,
#250,#251,#252,#253,#254,#255,#256,#257,#258),.UNSPECIFIED.,.F.,.F.,(4,
2,2,2,2,2,2,4),(7.57842540391876,7.89089855742883,8.2033717109389,8.51584486444897,
8.82831801795905,9.46644261159203,9.78550490840852,10.104567205225),
 .UNSPECIFIED.);
#23=CYLINDRICAL_SURFACE('',#101,21.2);
#24=CYLINDRICAL_SURFACE('',#102,15.85);
#25=CYLINDRICAL_SURFACE('',#103,16.85);
#26=FACE_BOUND('',#33,.T.);
#27=FACE_BOUND('',#35,.T.);
#28=FACE_OUTER_BOUND('',#32,.T.);
#29=FACE_OUTER_BOUND('',#34,.T.);
#30=FACE_OUTER_BOUND('',#36,.T.);
#31=FACE_OUTER_BOUND('',#37,.T.);
#32=EDGE_LOOP('',(#54));
#33=EDGE_LOOP('',(#55));
#34=EDGE_LOOP('',(#56,#57));
#35=EDGE_LOOP('',(#58,#59));
#36=EDGE_LOOP('',(#60,#61,#62,#63,#64));
#37=EDGE_LOOP('',(#65,#66,#67,#68,#69));
#38=CIRCLE('',#99,16.85);
#39=CIRCLE('',#100,15.85);
#40=VERTEX_POINT('',#122);
#41=VERTEX_POINT('',#124);
#42=VERTEX_POINT('',#127);
#43=VERTEX_POINT('',#128);
#44=VERTEX_POINT('',#197);
#45=VERTEX_POINT('',#198);
#46=EDGE_CURVE('',#40,#40,#38,.T.);
#47=EDGE_CURVE('',#41,#41,#39,.T.);
#48=EDGE_CURVE('',#42,#43,#19,.T.);
#49=EDGE_CURVE('',#43,#42,#20,.T.);
#50=EDGE_CURVE('',#44,#45,#21,.T.);
#51=EDGE_CURVE('',#45,#44,#22,.T.);
#52=EDGE_CURVE('',#45,#41,#15,.T.);
#53=EDGE_CURVE('',#43,#40,#16,.T.);
#54=ORIENTED_EDGE('',*,*,#46,.T.);
#55=ORIENTED_EDGE('',*,*,#47,.T.);
#56=ORIENTED_EDGE('',*,*,#48,.F.);
#57=ORIENTED_EDGE('',*,*,#49,.F.);
#58=ORIENTED_EDGE('',*,*,#50,.F.);
#59=ORIENTED_EDGE('',*,*,#51,.F.);
#60=ORIENTED_EDGE('',*,*,#50,.T.);
#61=ORIENTED_EDGE('',*,*,#52,.T.);
#62=ORIENTED_EDGE('',*,*,#47,.F.);
#63=ORIENTED_EDGE('',*,*,#52,.F.);
#64=ORIENTED_EDGE('',*,*,#51,.T.);
#65=ORIENTED_EDGE('',*,*,#48,.T.);
#66=ORIENTED_EDGE('',*,*,#53,.T.);
#67=ORIENTED_EDGE('',*,*,#46,.F.);
#68=ORIENTED_EDGE('',*,*,#53,.F.);
#69=ORIENTED_EDGE('',*,*,#49,.T.);
#70=PLANE('',#98);
#71=ADVANCED_FACE('',(#28,#26),#70,.T.);
#72=ADVANCED_FACE('',(#29,#27),#23,.F.);
#73=ADVANCED_FACE('',(#30),#24,.F.);
#74=ADVANCED_FACE('',(#31),#25,.T.);
#75=CLOSED_SHELL('',(#71,#72,#73,#74));
#76=DERIVED_UNIT_ELEMENT(#79,1.);
#77=DERIVED_UNIT_ELEMENT(#268,-3.);
#78=DIMENSIONAL_EXPONENTS(1.,0.,0.,0.,0.,0.,0.);
#79=(
CONVERSION_BASED_UNIT('gram',#81)
MASS_UNIT()
NAMED_UNIT(#78)
);
#80=(
MASS_UNIT()
NAMED_UNIT(*)
SI_UNIT(.KILO.,.GRAM.)
);
#81=MASS_MEASURE_WITH_UNIT(MASS_MEASURE(0.001),#80);
#82=DERIVED_UNIT((#76,#77));
#83=MEASURE_REPRESENTATION_ITEM('density measure',
POSITIVE_RATIO_MEASURE(8.),#82);
#84=PROPERTY_DEFINITION_REPRESENTATION(#89,#86);
#85=PROPERTY_DEFINITION_REPRESENTATION(#90,#87);
#86=REPRESENTATION('material name',(#88),#265);
#87=REPRESENTATION('density',(#83),#265);
#88=DESCRIPTIVE_REPRESENTATION_ITEM('Edelstahl AISI 304',
'Edelstahl AISI 304');
#89=PROPERTY_DEFINITION('material property','material name',#275);
#90=PROPERTY_DEFINITION('material property','density of part',#275);
#91=DATE_TIME_ROLE('creation_date');
#92=APPLIED_DATE_AND_TIME_ASSIGNMENT(#93,#91,(#275));
#93=DATE_AND_TIME(#94,#95);
#94=CALENDAR_DATE(2021,10,6);
#95=LOCAL_TIME(0,0,0.,#96);
#96=COORDINATED_UNIVERSAL_TIME_OFFSET(0,0,.BEHIND.);
#97=AXIS2_PLACEMENT_3D('placement',#120,#104,#105);
#98=AXIS2_PLACEMENT_3D('',#121,#106,#107);
#99=AXIS2_PLACEMENT_3D('',#123,#108,#109);
#100=AXIS2_PLACEMENT_3D('',#125,#110,#111);
#101=AXIS2_PLACEMENT_3D('',#126,#112,#113);
#102=AXIS2_PLACEMENT_3D('',#259,#114,#115);
#103=AXIS2_PLACEMENT_3D('',#261,#117,#118);
#104=DIRECTION('axis',(0.,0.,1.));
#105=DIRECTION('refdir',(1.,0.,0.));
#106=DIRECTION('center_axis',(0.,-1.,0.));
#107=DIRECTION('ref_axis',(0.,0.,-1.));
#108=DIRECTION('center_axis',(0.,-1.,0.));
#109=DIRECTION('ref_axis',(1.,0.,0.));
#110=DIRECTION('center_axis',(0.,1.,0.));
#111=DIRECTION('ref_axis',(-1.,0.,0.));
#112=DIRECTION('center_axis',(1.,0.,0.));
#113=DIRECTION('ref_axis',(0.,-1.,5.66553889764798E-16));
#114=DIRECTION('center_axis',(0.,1.,0.));
#115=DIRECTION('ref_axis',(1.,0.,0.));
#116=DIRECTION('',(0.,-1.,0.));
#117=DIRECTION('center_axis',(0.,1.,0.));
#118=DIRECTION('ref_axis',(-1.,0.,0.));
#119=DIRECTION('',(0.,-1.,0.));
#120=CARTESIAN_POINT('',(0.,0.,0.));
#121=CARTESIAN_POINT('Origin',(0.,-40.,0.));
#122=CARTESIAN_POINT('',(16.85,-40.,0.));
#123=CARTESIAN_POINT('Origin',(0.,-40.,0.));
#124=CARTESIAN_POINT('',(-15.85,-40.,1.94106517664855E-15));
#125=CARTESIAN_POINT('Origin',(0.,-40.,0.));
#126=CARTESIAN_POINT('Origin',(0.,51.2,0.));
#127=CARTESIAN_POINT('',(0.,38.3346395308954,16.85));
#128=CARTESIAN_POINT('',(16.85,30.,-2.28076583098495E-15));
#129=CARTESIAN_POINT('Ctrl Pts',(0.,38.3346395308954,16.85));
#130=CARTESIAN_POINT('Ctrl Pts',(-1.14940373938269,38.3346395308954,16.85));
#131=CARTESIAN_POINT('Ctrl Pts',(-2.29093802526119,38.1761016759401,16.7316970315205));
#132=CARTESIAN_POINT('Ctrl Pts',(-4.50338829088887,37.6112533955615,16.2762888190228));
#133=CARTESIAN_POINT('Ctrl Pts',(-5.5750867156018,37.2078792697987,15.9393479814169));
#134=CARTESIAN_POINT('Ctrl Pts',(-7.60966499866909,36.2800527002763,15.0743961046019));
#135=CARTESIAN_POINT('Ctrl Pts',(-8.57409320897499,35.756067614083,14.5455566312948));
#136=CARTESIAN_POINT('Ctrl Pts',(-10.3604551331589,34.6973031283473,13.3322639269805));
#137=CARTESIAN_POINT('Ctrl Pts',(-11.1821684710817,34.1627027723959,12.647330054905));
#138=CARTESIAN_POINT('Ctrl Pts',(-12.6254610862402,33.1820127801331,11.2040374397465));
#139=CARTESIAN_POINT('Ctrl Pts',(-13.305078763106,32.6967139237143,10.3953788364697));
#140=CARTESIAN_POINT('Ctrl Pts',(-14.5233953140851,31.802178315893,8.61162067779097));
#141=CARTESIAN_POINT('Ctrl Pts',(-15.0621202093291,31.3932818508275,7.63636826460951));
#142=CARTESIAN_POINT('Ctrl Pts',(-15.9416880128757,30.7164448281929,5.57173060391727));
#143=CARTESIAN_POINT('Ctrl Pts',(-16.2832876227115,30.4480490987094,4.47994905103426));
#144=CARTESIAN_POINT('Ctrl Pts',(-16.7375446819348,30.0897320626818,2.2516654587565));
#145=CARTESIAN_POINT('Ctrl Pts',(-16.85,30.,1.11509179094331));
#146=CARTESIAN_POINT('Ctrl Pts',(-16.85,30.,-1.11509179094331));
#147=CARTESIAN_POINT('Ctrl Pts',(-16.7375446819348,30.0897320626818,-2.2516654587565));
#148=CARTESIAN_POINT('Ctrl Pts',(-16.2832876227115,30.4480490987094,-4.47994905103426));
#149=CARTESIAN_POINT('Ctrl Pts',(-15.9416880128757,30.7164448281929,-5.57173060391728));
#150=CARTESIAN_POINT('Ctrl Pts',(-15.0621202093291,31.3932818508275,-7.63636826460952));
#151=CARTESIAN_POINT('Ctrl Pts',(-14.5233953140851,31.802178315893,-8.61162067779096));
#152=CARTESIAN_POINT('Ctrl Pts',(-13.305078763106,32.6967139237143,-10.3953788364697));
#153=CARTESIAN_POINT('Ctrl Pts',(-12.6254610862402,33.1820127801331,-11.2040374397465));
#154=CARTESIAN_POINT('Ctrl Pts',(-11.1821684710817,34.1627027723959,-12.647330054905));
#155=CARTESIAN_POINT('Ctrl Pts',(-10.3604551331589,34.6973031283473,-13.3322639269805));
#156=CARTESIAN_POINT('Ctrl Pts',(-8.57409320897499,35.756067614083,-14.5455566312948));
#157=CARTESIAN_POINT('Ctrl Pts',(-7.60966499866909,36.2800527002763,-15.0743961046019));
#158=CARTESIAN_POINT('Ctrl Pts',(-5.5750867156018,37.2078792697987,-15.9393479814169));
#159=CARTESIAN_POINT('Ctrl Pts',(-4.50338829088887,37.6112533955615,-16.2762888190228));
#160=CARTESIAN_POINT('Ctrl Pts',(-2.29093802526119,38.1761016759401,-16.7316970315205));
#161=CARTESIAN_POINT('Ctrl Pts',(-1.14940373938269,38.3346395308954,-16.85));
#162=CARTESIAN_POINT('Ctrl Pts',(1.14940373938269,38.3346395308954,-16.85));
#163=CARTESIAN_POINT('Ctrl Pts',(2.29093802526118,38.1761016759401,-16.7316970315205));
#164=CARTESIAN_POINT('Ctrl Pts',(4.50338829088887,37.6112533955615,-16.2762888190228));
#165=CARTESIAN_POINT('Ctrl Pts',(5.5750867156018,37.2078792697987,-15.9393479814169));
#166=CARTESIAN_POINT('Ctrl Pts',(7.60966499866909,36.2800527002763,-15.0743961046019));
#167=CARTESIAN_POINT('Ctrl Pts',(8.57409320897499,35.756067614083,-14.5455566312948));
#168=CARTESIAN_POINT('Ctrl Pts',(10.3604551331589,34.6973031283473,-13.3322639269805));
#169=CARTESIAN_POINT('Ctrl Pts',(11.1821684710817,34.1627027723959,-12.647330054905));
#170=CARTESIAN_POINT('Ctrl Pts',(12.6254610862402,33.1820127801331,-11.2040374397465));
#171=CARTESIAN_POINT('Ctrl Pts',(13.305078763106,32.6967139237143,-10.3953788364697));
#172=CARTESIAN_POINT('Ctrl Pts',(14.5233953140851,31.802178315893,-8.61162067779096));
#173=CARTESIAN_POINT('Ctrl Pts',(15.0621202093291,31.3932818508275,-7.63636826460952));
#174=CARTESIAN_POINT('Ctrl Pts',(15.9416880128757,30.7164448281929,-5.57173060391728));
#175=CARTESIAN_POINT('Ctrl Pts',(16.2832876227115,30.4480490987094,-4.47994905103426));
#176=CARTESIAN_POINT('Ctrl Pts',(16.7375446819348,30.0897320626818,-2.25166545875651));
#177=CARTESIAN_POINT('Ctrl Pts',(16.85,30.,-1.11509179094331));
#178=CARTESIAN_POINT('Ctrl Pts',(16.85,30.,-1.11022302462516E-15));
#179=CARTESIAN_POINT('Ctrl Pts',(16.85,30.,-2.4980018054066E-15));
#180=CARTESIAN_POINT('Ctrl Pts',(16.85,30.,1.11509179094331));
#181=CARTESIAN_POINT('Ctrl Pts',(16.7375446819348,30.0897320626818,2.2516654587565));
#182=CARTESIAN_POINT('Ctrl Pts',(16.2832876227115,30.4480490987094,4.47994905103426));
#183=CARTESIAN_POINT('Ctrl Pts',(15.9416880128757,30.7164448281929,5.57173060391727));
#184=CARTESIAN_POINT('Ctrl Pts',(15.0621202093292,31.3932818508275,7.63636826460951));
#185=CARTESIAN_POINT('Ctrl Pts',(14.5233953140851,31.802178315893,8.61162067779096));
#186=CARTESIAN_POINT('Ctrl Pts',(13.305078763106,32.6967139237143,10.3953788364697));
#187=CARTESIAN_POINT('Ctrl Pts',(12.6254610862402,33.1820127801331,11.2040374397465));
#188=CARTESIAN_POINT('Ctrl Pts',(11.1821684710817,34.1627027723959,12.647330054905));
#189=CARTESIAN_POINT('Ctrl Pts',(10.3604551331589,34.6973031283473,13.3322639269805));
#190=CARTESIAN_POINT('Ctrl Pts',(8.57409320897499,35.756067614083,14.5455566312948));
#191=CARTESIAN_POINT('Ctrl Pts',(7.60966499866909,36.2800527002763,15.0743961046019));
#192=CARTESIAN_POINT('Ctrl Pts',(5.5750867156018,37.2078792697987,15.9393479814169));
#193=CARTESIAN_POINT('Ctrl Pts',(4.50338829088886,37.6112533955615,16.2762888190228));
#194=CARTESIAN_POINT('Ctrl Pts',(2.29093802526118,38.1761016759401,16.7316970315205));
#195=CARTESIAN_POINT('Ctrl Pts',(1.14940373938269,38.3346395308954,16.85));
#196=CARTESIAN_POINT('Ctrl Pts',(5.55111512312578E-16,38.3346395308954,
16.85));
#197=CARTESIAN_POINT('',(2.77555756156289E-16,37.1210263158141,15.85));
#198=CARTESIAN_POINT('',(-15.85,30.,1.3786531985541E-16));
#199=CARTESIAN_POINT('Ctrl Pts',(2.77555756156289E-16,37.1210263158141,
15.85));
#200=CARTESIAN_POINT('Ctrl Pts',(1.0635409893883,37.1210263158141,15.85));
#201=CARTESIAN_POINT('Ctrl Pts',(2.13147971118013,36.9968008628438,15.741872176894));
#202=CARTESIAN_POINT('Ctrl Pts',(4.21196727044453,36.5395659699909,15.316953950172));
#203=CARTESIAN_POINT('Ctrl Pts',(5.22500629955084,36.2085567303659,15.0004138351334));
#204=CARTESIAN_POINT('Ctrl Pts',(8.10949925616679,35.0481601359667,13.7775576322476));
#205=CARTESIAN_POINT('Ctrl Pts',(9.83114094645778,34.0620584484863,12.5841440171558));
#206=CARTESIAN_POINT('Ctrl Pts',(11.8816797777417,32.7849594480393,10.5336051858718));
#207=CARTESIAN_POINT('Ctrl Pts',(12.5239775741894,32.3614547252582,9.76791714670782));
#208=CARTESIAN_POINT('Ctrl Pts',(13.6723449591073,31.5792510239562,8.08264827098953));
#209=CARTESIAN_POINT('Ctrl Pts',(14.1784593551874,31.2209043065153,7.16293448925152));
#210=CARTESIAN_POINT('Ctrl Pts',(15.0029808421472,30.6275673376927,5.21985792641196));
#211=CARTESIAN_POINT('Ctrl Pts',(15.3220829642828,30.3922251248783,4.19430890030491));
#212=CARTESIAN_POINT('Ctrl Pts',(15.7456846835465,30.0783557684907,2.10520007901153));
#213=CARTESIAN_POINT('Ctrl Pts',(15.85,30.,1.04157717836691));
#214=CARTESIAN_POINT('Ctrl Pts',(15.85,30.,-1.04157717836691));
#215=CARTESIAN_POINT('Ctrl Pts',(15.7456846835465,30.0783557684907,-2.10520007901153));
#216=CARTESIAN_POINT('Ctrl Pts',(15.3220829642828,30.3922251248783,-4.1943089003049));
#217=CARTESIAN_POINT('Ctrl Pts',(15.0029808421472,30.6275673376927,-5.21985792641196));
#218=CARTESIAN_POINT('Ctrl Pts',(14.1784593551874,31.2209043065153,-7.16293448925151));
#219=CARTESIAN_POINT('Ctrl Pts',(13.6723449591073,31.5792510239562,-8.08264827098953));
#220=CARTESIAN_POINT('Ctrl Pts',(12.5239775741894,32.3614547252582,-9.76791714670782));
#221=CARTESIAN_POINT('Ctrl Pts',(11.8816797777417,32.7849594480393,-10.5336051858718));
#222=CARTESIAN_POINT('Ctrl Pts',(9.83114094645778,34.0620584484863,-12.5841440171558));
#223=CARTESIAN_POINT('Ctrl Pts',(8.10949925616679,35.0481601359667,-13.7775576322476));
#224=CARTESIAN_POINT('Ctrl Pts',(5.22500629955084,36.2085567303659,-15.0004138351334));
#225=CARTESIAN_POINT('Ctrl Pts',(4.21196727044453,36.5395659699909,-15.316953950172));
#226=CARTESIAN_POINT('Ctrl Pts',(2.13147971118013,36.9968008628438,-15.741872176894));
#227=CARTESIAN_POINT('Ctrl Pts',(1.0635409893883,37.1210263158141,-15.85));
#228=CARTESIAN_POINT('Ctrl Pts',(-1.0635409893883,37.1210263158141,-15.85));
#229=CARTESIAN_POINT('Ctrl Pts',(-2.13147971118013,36.9968008628438,-15.741872176894));
#230=CARTESIAN_POINT('Ctrl Pts',(-4.21196727044453,36.5395659699909,-15.316953950172));
#231=CARTESIAN_POINT('Ctrl Pts',(-5.22500629955085,36.2085567303659,-15.0004138351334));
#232=CARTESIAN_POINT('Ctrl Pts',(-8.1094992561668,35.0481601359667,-13.7775576322476));
#233=CARTESIAN_POINT('Ctrl Pts',(-9.83114094645777,34.0620584484863,-12.5841440171558));
#234=CARTESIAN_POINT('Ctrl Pts',(-11.8816797777417,32.7849594480393,-10.5336051858718));
#235=CARTESIAN_POINT('Ctrl Pts',(-12.5239775741894,32.3614547252582,-9.76791714670783));
#236=CARTESIAN_POINT('Ctrl Pts',(-13.6723449591073,31.5792510239562,-8.08264827098953));
#237=CARTESIAN_POINT('Ctrl Pts',(-14.1784593551874,31.2209043065153,-7.16293448925151));
#238=CARTESIAN_POINT('Ctrl Pts',(-15.0029808421472,30.6275673376927,-5.21985792641195));
#239=CARTESIAN_POINT('Ctrl Pts',(-15.3220829642828,30.3922251248783,-4.1943089003049));
#240=CARTESIAN_POINT('Ctrl Pts',(-15.7456846835465,30.0783557684907,-2.10520007901152));
#241=CARTESIAN_POINT('Ctrl Pts',(-15.85,30.,-1.04157717836691));
#242=CARTESIAN_POINT('Ctrl Pts',(-15.85,30.,-1.66533453693773E-15));
#243=CARTESIAN_POINT('Ctrl Pts',(-15.85,30.,-1.66533453693773E-15));
#244=CARTESIAN_POINT('Ctrl Pts',(-15.85,30.,1.0415771783669));
#245=CARTESIAN_POINT('Ctrl Pts',(-15.7456846835465,30.0783557684907,2.10520007901152));
#246=CARTESIAN_POINT('Ctrl Pts',(-15.3220829642828,30.3922251248783,4.1943089003049));
#247=CARTESIAN_POINT('Ctrl Pts',(-15.0029808421472,30.6275673376927,5.21985792641195));
#248=CARTESIAN_POINT('Ctrl Pts',(-14.1784593551874,31.2209043065153,7.16293448925151));
#249=CARTESIAN_POINT('Ctrl Pts',(-13.6723449591073,31.5792510239562,8.08264827098953));
#250=CARTESIAN_POINT('Ctrl Pts',(-12.5239775741894,32.3614547252582,9.76791714670782));
#251=CARTESIAN_POINT('Ctrl Pts',(-11.8816797777417,32.7849594480393,10.5336051858718));
#252=CARTESIAN_POINT('Ctrl Pts',(-9.83114094645777,34.0620584484863,12.5841440171558));
#253=CARTESIAN_POINT('Ctrl Pts',(-8.10949925616679,35.0481601359667,13.7775576322476));
#254=CARTESIAN_POINT('Ctrl Pts',(-5.22500629955084,36.2085567303659,15.0004138351334));
#255=CARTESIAN_POINT('Ctrl Pts',(-4.21196727044453,36.5395659699909,15.316953950172));
#256=CARTESIAN_POINT('Ctrl Pts',(-2.13147971118012,36.9968008628438,15.741872176894));
#257=CARTESIAN_POINT('Ctrl Pts',(-1.0635409893883,37.1210263158141,15.85));
#258=CARTESIAN_POINT('Ctrl Pts',(-2.77555756156289E-16,37.1210263158141,
15.85));
#259=CARTESIAN_POINT('Origin',(0.,0.,0.));
#260=CARTESIAN_POINT('',(-15.85,0.,1.94106517664855E-15));
#261=CARTESIAN_POINT('Origin',(0.,0.,0.));
#262=CARTESIAN_POINT('',(16.85,0.,-2.06352985656329E-15));
#263=UNCERTAINTY_MEASURE_WITH_UNIT(LENGTH_MEASURE(0.01),#267,
'DISTANCE_ACCURACY_VALUE',
'Maximum model space distance between geometric entities at asserted c
onnectivities');
#264=UNCERTAINTY_MEASURE_WITH_UNIT(LENGTH_MEASURE(0.01),#267,
'DISTANCE_ACCURACY_VALUE',
'Maximum model space distance between geometric entities at asserted c
onnectivities');
#265=(
GEOMETRIC_REPRESENTATION_CONTEXT(3)
GLOBAL_UNCERTAINTY_ASSIGNED_CONTEXT((#263))
GLOBAL_UNIT_ASSIGNED_CONTEXT((#267,#269,#270))
REPRESENTATION_CONTEXT('','3D')
);
#266=(
GEOMETRIC_REPRESENTATION_CONTEXT(3)
GLOBAL_UNCERTAINTY_ASSIGNED_CONTEXT((#264))
GLOBAL_UNIT_ASSIGNED_CONTEXT((#267,#269,#270))
REPRESENTATION_CONTEXT('','3D')
);
#267=(
LENGTH_UNIT()
NAMED_UNIT(*)
SI_UNIT(.MILLI.,.METRE.)
);
#268=(
LENGTH_UNIT()
NAMED_UNIT(*)
SI_UNIT(.CENTI.,.METRE.)
);
#269=(
NAMED_UNIT(*)
PLANE_ANGLE_UNIT()
SI_UNIT($,.RADIAN.)
);
#270=(
NAMED_UNIT(*)
SI_UNIT($,.STERADIAN.)
SOLID_ANGLE_UNIT()
);
#271=SHAPE_DEFINITION_REPRESENTATION(#272,#273);
#272=PRODUCT_DEFINITION_SHAPE('',$,#275);
#273=SHAPE_REPRESENTATION('',(#97),#265);
#274=PRODUCT_DEFINITION_CONTEXT('part definition',#279,'design');
#275=PRODUCT_DEFINITION('41581','41581',#276,#274);
#276=PRODUCT_DEFINITION_FORMATION('',$,#281);
#277=PRODUCT_RELATED_PRODUCT_CATEGORY('41581','41581',(#281));
#278=APPLICATION_PROTOCOL_DEFINITION('international standard',
'automotive_design',2009,#279);
#279=APPLICATION_CONTEXT(
'Core Data for Automotive Mechanical Design Process');
#280=PRODUCT_CONTEXT('part definition',#279,'mechanical');
#281=PRODUCT('41581','41581',$,(#280));
#282=PRESENTATION_STYLE_ASSIGNMENT((#283));
#283=SURFACE_STYLE_USAGE(.BOTH.,#286);
#284=SURFACE_STYLE_RENDERING_WITH_PROPERTIES($,#290,(#285));
#285=SURFACE_STYLE_TRANSPARENT(0.);
#286=SURFACE_SIDE_STYLE('',(#287,#284));
#287=SURFACE_STYLE_FILL_AREA(#288);
#288=FILL_AREA_STYLE('',(#289));
#289=FILL_AREA_STYLE_COLOUR('',#290);
#290=COLOUR_RGB('',0.956862745098039,0.956862745098039,0.956862745098039);
ENDSEC;
END-ISO-10303-21;
