ISO-10303-21;
HEADER;
/* Generated by software containing ST-Developer
 * from STEP Tools, Inc. (www.steptools.com) 
 */

FILE_DESCRIPTION(
/* description */ (''),
/* implementation_level */ '2;1');

FILE_NAME(
/* name */ 
'C:\\Users\\O.Boryczka\\Desktop\\Korrigierte Zeichnungen\\Kugeln V2A\\
Massivkugeln mit Durchgangsloch V2A\\41628.ipt.step',
/* time_stamp */ '2022-07-18T12:55:42+02:00',
/* author */ ('Abt. Technik'),
/* organization */ (''),
/* preprocessor_version */ 'ST-DEVELOPER v18.1',
/* originating_system */ 'Autodesk Inventor 2022',
/* authorisation */ '');

FILE_SCHEMA (('AUTOMOTIVE_DESIGN { 1 0 10303 214 3 1 1 }'));
ENDSEC;

DATA;
#10=MECHANICAL_DESIGN_GEOMETRIC_PRESENTATION_REPRESENTATION('',(#13),#129);
#11=SHAPE_REPRESENTATION_RELATIONSHIP('SRR','None',#136,#12);
#12=ADVANCED_BREP_SHAPE_REPRESENTATION('',(#14),#128);
#13=STYLED_ITEM('',(#145),#14);
#14=MANIFOLD_SOLID_BREP('Volumenk\X\F6rper1',#60);
#15=FACE_BOUND('',#21,.T.);
#16=SPHERICAL_SURFACE('',#88,10.);
#17=FACE_OUTER_BOUND('',#19,.T.);
#18=FACE_OUTER_BOUND('',#20,.T.);
#19=EDGE_LOOP('',(#43,#44,#45,#46,#47,#48));
#20=EDGE_LOOP('',(#49,#50,#51,#52,#53,#54,#55));
#21=EDGE_LOOP('',(#56));
#22=LINE('',#116,#23);
#23=VECTOR('',#97,6.1);
#24=CIRCLE('',#84,6.1);
#25=CIRCLE('',#85,6.1);
#26=CIRCLE('',#86,6.1);
#27=CIRCLE('',#87,6.1);
#28=CIRCLE('',#89,10.);
#29=CIRCLE('',#90,10.);
#30=VERTEX_POINT('',#112);
#31=VERTEX_POINT('',#113);
#32=VERTEX_POINT('',#115);
#33=VERTEX_POINT('',#118);
#34=VERTEX_POINT('',#122);
#35=VERTEX_POINT('',#124);
#36=EDGE_CURVE('',#30,#31,#24,.T.);
#37=EDGE_CURVE('',#30,#32,#22,.T.);
#38=EDGE_CURVE('',#32,#32,#25,.T.);
#39=EDGE_CURVE('',#33,#30,#26,.T.);
#40=EDGE_CURVE('',#31,#33,#27,.T.);
#41=EDGE_CURVE('',#31,#34,#28,.T.);
#42=EDGE_CURVE('',#35,#33,#29,.T.);
#43=ORIENTED_EDGE('',*,*,#36,.F.);
#44=ORIENTED_EDGE('',*,*,#37,.T.);
#45=ORIENTED_EDGE('',*,*,#38,.F.);
#46=ORIENTED_EDGE('',*,*,#37,.F.);
#47=ORIENTED_EDGE('',*,*,#39,.F.);
#48=ORIENTED_EDGE('',*,*,#40,.F.);
#49=ORIENTED_EDGE('',*,*,#36,.T.);
#50=ORIENTED_EDGE('',*,*,#41,.T.);
#51=ORIENTED_EDGE('',*,*,#41,.F.);
#52=ORIENTED_EDGE('',*,*,#40,.T.);
#53=ORIENTED_EDGE('',*,*,#42,.F.);
#54=ORIENTED_EDGE('',*,*,#42,.T.);
#55=ORIENTED_EDGE('',*,*,#39,.T.);
#56=ORIENTED_EDGE('',*,*,#38,.T.);
#57=CYLINDRICAL_SURFACE('',#83,6.1);
#58=ADVANCED_FACE('',(#17),#57,.F.);
#59=ADVANCED_FACE('',(#18,#15),#16,.T.);
#60=CLOSED_SHELL('',(#58,#59));
#61=DERIVED_UNIT_ELEMENT(#64,1.);
#62=DERIVED_UNIT_ELEMENT(#131,-3.);
#63=DIMENSIONAL_EXPONENTS(1.,0.,0.,0.,0.,0.,0.);
#64=(
CONVERSION_BASED_UNIT('gram',#66)
MASS_UNIT()
NAMED_UNIT(#63)
);
#65=(
MASS_UNIT()
NAMED_UNIT(*)
SI_UNIT(.KILO.,.GRAM.)
);
#66=MASS_MEASURE_WITH_UNIT(MASS_MEASURE(0.001),#65);
#67=DERIVED_UNIT((#61,#62));
#68=MEASURE_REPRESENTATION_ITEM('density measure',
POSITIVE_RATIO_MEASURE(8.),#67);
#69=PROPERTY_DEFINITION_REPRESENTATION(#74,#71);
#70=PROPERTY_DEFINITION_REPRESENTATION(#75,#72);
#71=REPRESENTATION('material name',(#73),#128);
#72=REPRESENTATION('density',(#68),#128);
#73=DESCRIPTIVE_REPRESENTATION_ITEM('Edelstahl AISI 304',
'Edelstahl AISI 304');
#74=PROPERTY_DEFINITION('material property','material name',#138);
#75=PROPERTY_DEFINITION('material property','density of part',#138);
#76=DATE_TIME_ROLE('creation_date');
#77=APPLIED_DATE_AND_TIME_ASSIGNMENT(#78,#76,(#138));
#78=DATE_AND_TIME(#79,#80);
#79=CALENDAR_DATE(2021,10,6);
#80=LOCAL_TIME(0,0,0.,#81);
#81=COORDINATED_UNIVERSAL_TIME_OFFSET(0,0,.BEHIND.);
#82=AXIS2_PLACEMENT_3D('placement',#110,#91,#92);
#83=AXIS2_PLACEMENT_3D('',#111,#93,#94);
#84=AXIS2_PLACEMENT_3D('',#114,#95,#96);
#85=AXIS2_PLACEMENT_3D('',#117,#98,#99);
#86=AXIS2_PLACEMENT_3D('',#119,#100,#101);
#87=AXIS2_PLACEMENT_3D('',#120,#102,#103);
#88=AXIS2_PLACEMENT_3D('',#121,#104,#105);
#89=AXIS2_PLACEMENT_3D('',#123,#106,#107);
#90=AXIS2_PLACEMENT_3D('',#125,#108,#109);
#91=DIRECTION('axis',(0.,0.,1.));
#92=DIRECTION('refdir',(1.,0.,0.));
#93=DIRECTION('center_axis',(1.,0.,0.));
#94=DIRECTION('ref_axis',(0.,1.,0.));
#95=DIRECTION('center_axis',(1.,0.,0.));
#96=DIRECTION('ref_axis',(0.,1.,0.));
#97=DIRECTION('',(1.,0.,0.));
#98=DIRECTION('center_axis',(-1.,0.,0.));
#99=DIRECTION('ref_axis',(0.,1.,0.));
#100=DIRECTION('center_axis',(1.,0.,0.));
#101=DIRECTION('ref_axis',(0.,1.,0.));
#102=DIRECTION('center_axis',(1.,0.,0.));
#103=DIRECTION('ref_axis',(0.,1.,0.));
#104=DIRECTION('center_axis',(6.12323399573677E-17,0.,1.));
#105=DIRECTION('ref_axis',(1.,0.,0.));
#106=DIRECTION('center_axis',(1.22464679914735E-16,-1.,0.));
#107=DIRECTION('ref_axis',(-1.,-1.22464679914735E-16,0.));
#108=DIRECTION('center_axis',(1.22464679914735E-16,-1.,0.));
#109=DIRECTION('ref_axis',(-1.,-1.22464679914735E-16,0.));
#110=CARTESIAN_POINT('',(0.,0.,0.));
#111=CARTESIAN_POINT('Origin',(1.5,0.,0.));
#112=CARTESIAN_POINT('',(-7.92401413426301,-6.1,-7.47034547479885E-16));
#113=CARTESIAN_POINT('',(-7.92401413426301,-9.70411854592358E-16,-6.1));
#114=CARTESIAN_POINT('Origin',(-7.92401413426301,0.,0.));
#115=CARTESIAN_POINT('',(7.92401413426301,-6.1,7.47034547479885E-16));
#116=CARTESIAN_POINT('',(1.5,-6.1,-7.47034547479885E-16));
#117=CARTESIAN_POINT('Origin',(7.92401413426301,0.,0.));
#118=CARTESIAN_POINT('',(-7.92401413426301,-9.70411854592358E-16,6.1));
#119=CARTESIAN_POINT('Origin',(-7.92401413426301,0.,0.));
#120=CARTESIAN_POINT('Origin',(-7.92401413426301,0.,0.));
#121=CARTESIAN_POINT('Origin',(0.,0.,0.));
#122=CARTESIAN_POINT('',(-6.12323399573677E-16,-7.49879891330929E-32,-10.));
#123=CARTESIAN_POINT('Origin',(0.,0.,0.));
#124=CARTESIAN_POINT('',(-6.12323399573677E-16,-7.49879891330929E-32,10.));
#125=CARTESIAN_POINT('Origin',(0.,0.,0.));
#126=UNCERTAINTY_MEASURE_WITH_UNIT(LENGTH_MEASURE(0.01),#130,
'DISTANCE_ACCURACY_VALUE',
'Maximum model space distance between geometric entities at asserted c
onnectivities');
#127=UNCERTAINTY_MEASURE_WITH_UNIT(LENGTH_MEASURE(0.01),#130,
'DISTANCE_ACCURACY_VALUE',
'Maximum model space distance between geometric entities at asserted c
onnectivities');
#128=(
GEOMETRIC_REPRESENTATION_CONTEXT(3)
GLOBAL_UNCERTAINTY_ASSIGNED_CONTEXT((#126))
GLOBAL_UNIT_ASSIGNED_CONTEXT((#130,#132,#133))
REPRESENTATION_CONTEXT('','3D')
);
#129=(
GEOMETRIC_REPRESENTATION_CONTEXT(3)
GLOBAL_UNCERTAINTY_ASSIGNED_CONTEXT((#127))
GLOBAL_UNIT_ASSIGNED_CONTEXT((#130,#132,#133))
REPRESENTATION_CONTEXT('','3D')
);
#130=(
LENGTH_UNIT()
NAMED_UNIT(*)
SI_UNIT(.MILLI.,.METRE.)
);
#131=(
LENGTH_UNIT()
NAMED_UNIT(*)
SI_UNIT(.CENTI.,.METRE.)
);
#132=(
NAMED_UNIT(*)
PLANE_ANGLE_UNIT()
SI_UNIT($,.RADIAN.)
);
#133=(
NAMED_UNIT(*)
SI_UNIT($,.STERADIAN.)
SOLID_ANGLE_UNIT()
);
#134=SHAPE_DEFINITION_REPRESENTATION(#135,#136);
#135=PRODUCT_DEFINITION_SHAPE('',$,#138);
#136=SHAPE_REPRESENTATION('',(#82),#128);
#137=PRODUCT_DEFINITION_CONTEXT('part definition',#142,'design');
#138=PRODUCT_DEFINITION('41628','41628',#139,#137);
#139=PRODUCT_DEFINITION_FORMATION('',$,#144);
#140=PRODUCT_RELATED_PRODUCT_CATEGORY('41628','41628',(#144));
#141=APPLICATION_PROTOCOL_DEFINITION('international standard',
'automotive_design',2009,#142);
#142=APPLICATION_CONTEXT(
'Core Data for Automotive Mechanical Design Process');
#143=PRODUCT_CONTEXT('part definition',#142,'mechanical');
#144=PRODUCT('41628','41628',$,(#143));
#145=PRESENTATION_STYLE_ASSIGNMENT((#146));
#146=SURFACE_STYLE_USAGE(.BOTH.,#149);
#147=SURFACE_STYLE_RENDERING_WITH_PROPERTIES($,#153,(#148));
#148=SURFACE_STYLE_TRANSPARENT(0.);
#149=SURFACE_SIDE_STYLE('',(#150,#147));
#150=SURFACE_STYLE_FILL_AREA(#151);
#151=FILL_AREA_STYLE('',(#152));
#152=FILL_AREA_STYLE_COLOUR('',#153);
#153=COLOUR_RGB('',0.956862745098039,0.956862745098039,0.956862745098039);
ENDSEC;
END-ISO-10303-21;
