ISO-10303-21;
HEADER;
/* Generated by software containing ST-Developer
 * from STEP Tools, Inc. (www.steptools.com) 
 */

FILE_DESCRIPTION(
/* description */ (''),
/* implementation_level */ '2;1');

FILE_NAME(
/* name */ 
'C:\\Users\\O.Boryczka\\Desktop\\Korrigierte Zeichnungen\\Zierkappen V
2A\\41634.ipt.step',
/* time_stamp */ '2022-07-18T12:58:53+02:00',
/* author */ ('Abt. Technik'),
/* organization */ (''),
/* preprocessor_version */ 'ST-DEVELOPER v18.1',
/* originating_system */ 'Autodesk Inventor 2022',
/* authorisation */ '');

FILE_SCHEMA (('AUTOMOTIVE_DESIGN { 1 0 10303 214 3 1 1 }'));
ENDSEC;

DATA;
#10=MECHANICAL_DESIGN_GEOMETRIC_PRESENTATION_REPRESENTATION('',(#13),#149);
#11=SHAPE_REPRESENTATION_RELATIONSHIP('SRR','None',#156,#12);
#12=ADVANCED_BREP_SHAPE_REPRESENTATION('',(#14),#148);
#13=STYLED_ITEM('',(#165),#14);
#14=MANIFOLD_SOLID_BREP('Volumenk\X\F6rper1',#73);
#15=SPHERICAL_SURFACE('',#104,12.);
#16=FACE_BOUND('',#29,.T.);
#17=PLANE('',#103);
#18=CYLINDRICAL_SURFACE('',#98,6.);
#19=CYLINDRICAL_SURFACE('',#100,6.99999999999999);
#20=FACE_OUTER_BOUND('',#25,.T.);
#21=FACE_OUTER_BOUND('',#26,.T.);
#22=FACE_OUTER_BOUND('',#27,.T.);
#23=FACE_OUTER_BOUND('',#28,.T.);
#24=FACE_OUTER_BOUND('',#30,.T.);
#25=EDGE_LOOP('',(#53,#54,#55));
#26=EDGE_LOOP('',(#56,#57,#58,#59));
#27=EDGE_LOOP('',(#60,#61,#62,#63));
#28=EDGE_LOOP('',(#64));
#29=EDGE_LOOP('',(#65));
#30=EDGE_LOOP('',(#66));
#31=LINE('',#133,#34);
#32=LINE('',#137,#35);
#33=LINE('',#142,#36);
#34=VECTOR('',#111,3.);
#35=VECTOR('',#116,6.);
#36=VECTOR('',#121,6.99999999999999);
#37=CIRCLE('',#97,6.);
#38=CIRCLE('',#99,6.);
#39=CIRCLE('',#101,7.);
#40=CIRCLE('',#102,6.99999999999999);
#41=VERTEX_POINT('',#130);
#42=VERTEX_POINT('',#132);
#43=VERTEX_POINT('',#135);
#44=VERTEX_POINT('',#139);
#45=VERTEX_POINT('',#141);
#46=EDGE_CURVE('',#41,#41,#37,.T.);
#47=EDGE_CURVE('',#41,#42,#31,.T.);
#48=EDGE_CURVE('',#43,#43,#38,.T.);
#49=EDGE_CURVE('',#43,#41,#32,.T.);
#50=EDGE_CURVE('',#44,#44,#39,.T.);
#51=EDGE_CURVE('',#44,#45,#33,.T.);
#52=EDGE_CURVE('',#45,#45,#40,.T.);
#53=ORIENTED_EDGE('',*,*,#46,.T.);
#54=ORIENTED_EDGE('',*,*,#47,.T.);
#55=ORIENTED_EDGE('',*,*,#47,.F.);
#56=ORIENTED_EDGE('',*,*,#48,.F.);
#57=ORIENTED_EDGE('',*,*,#49,.T.);
#58=ORIENTED_EDGE('',*,*,#46,.F.);
#59=ORIENTED_EDGE('',*,*,#49,.F.);
#60=ORIENTED_EDGE('',*,*,#50,.F.);
#61=ORIENTED_EDGE('',*,*,#51,.T.);
#62=ORIENTED_EDGE('',*,*,#52,.T.);
#63=ORIENTED_EDGE('',*,*,#51,.F.);
#64=ORIENTED_EDGE('',*,*,#50,.T.);
#65=ORIENTED_EDGE('',*,*,#48,.T.);
#66=ORIENTED_EDGE('',*,*,#52,.F.);
#67=CONICAL_SURFACE('',#96,3.,1.02974425867665);
#68=ADVANCED_FACE('',(#20),#67,.F.);
#69=ADVANCED_FACE('',(#21),#18,.F.);
#70=ADVANCED_FACE('',(#22),#19,.T.);
#71=ADVANCED_FACE('',(#23,#16),#17,.T.);
#72=ADVANCED_FACE('',(#24),#15,.T.);
#73=CLOSED_SHELL('',(#68,#69,#70,#71,#72));
#74=DERIVED_UNIT_ELEMENT(#77,1.);
#75=DERIVED_UNIT_ELEMENT(#151,-3.);
#76=DIMENSIONAL_EXPONENTS(1.,0.,0.,0.,0.,0.,0.);
#77=(
CONVERSION_BASED_UNIT('gram',#79)
MASS_UNIT()
NAMED_UNIT(#76)
);
#78=(
MASS_UNIT()
NAMED_UNIT(*)
SI_UNIT(.KILO.,.GRAM.)
);
#79=MASS_MEASURE_WITH_UNIT(MASS_MEASURE(0.001),#78);
#80=DERIVED_UNIT((#74,#75));
#81=MEASURE_REPRESENTATION_ITEM('density measure',
POSITIVE_RATIO_MEASURE(8.),#80);
#82=PROPERTY_DEFINITION_REPRESENTATION(#87,#84);
#83=PROPERTY_DEFINITION_REPRESENTATION(#88,#85);
#84=REPRESENTATION('material name',(#86),#148);
#85=REPRESENTATION('density',(#81),#148);
#86=DESCRIPTIVE_REPRESENTATION_ITEM('Edelstahl AISI 304',
'Edelstahl AISI 304');
#87=PROPERTY_DEFINITION('material property','material name',#158);
#88=PROPERTY_DEFINITION('material property','density of part',#158);
#89=DATE_TIME_ROLE('creation_date');
#90=APPLIED_DATE_AND_TIME_ASSIGNMENT(#91,#89,(#158));
#91=DATE_AND_TIME(#92,#93);
#92=CALENDAR_DATE(2021,10,6);
#93=LOCAL_TIME(0,0,0.,#94);
#94=COORDINATED_UNIVERSAL_TIME_OFFSET(0,0,.BEHIND.);
#95=AXIS2_PLACEMENT_3D('placement',#128,#105,#106);
#96=AXIS2_PLACEMENT_3D('',#129,#107,#108);
#97=AXIS2_PLACEMENT_3D('',#131,#109,#110);
#98=AXIS2_PLACEMENT_3D('',#134,#112,#113);
#99=AXIS2_PLACEMENT_3D('',#136,#114,#115);
#100=AXIS2_PLACEMENT_3D('',#138,#117,#118);
#101=AXIS2_PLACEMENT_3D('',#140,#119,#120);
#102=AXIS2_PLACEMENT_3D('',#143,#122,#123);
#103=AXIS2_PLACEMENT_3D('',#144,#124,#125);
#104=AXIS2_PLACEMENT_3D('',#145,#126,#127);
#105=DIRECTION('axis',(0.,0.,1.));
#106=DIRECTION('refdir',(1.,0.,0.));
#107=DIRECTION('center_axis',(0.,-1.,0.));
#108=DIRECTION('ref_axis',(1.,0.,0.));
#109=DIRECTION('center_axis',(0.,-1.,0.));
#110=DIRECTION('ref_axis',(1.,0.,0.));
#111=DIRECTION('',(0.857167300702112,0.515038074910054,1.04972719113862E-16));
#112=DIRECTION('center_axis',(0.,-1.,0.));
#113=DIRECTION('ref_axis',(1.,0.,0.));
#114=DIRECTION('center_axis',(0.,1.,0.));
#115=DIRECTION('ref_axis',(1.,0.,0.));
#116=DIRECTION('',(0.,1.,0.));
#117=DIRECTION('center_axis',(0.,-1.,0.));
#118=DIRECTION('ref_axis',(1.,0.,0.));
#119=DIRECTION('center_axis',(0.,-1.,0.));
#120=DIRECTION('ref_axis',(1.,0.,0.));
#121=DIRECTION('',(0.,1.,0.));
#122=DIRECTION('center_axis',(0.,-1.,0.));
#123=DIRECTION('ref_axis',(1.,0.,0.));
#124=DIRECTION('center_axis',(0.,-1.,0.));
#125=DIRECTION('ref_axis',(0.,0.,-1.));
#126=DIRECTION('center_axis',(6.12323399573677E-17,0.,1.));
#127=DIRECTION('ref_axis',(1.,0.,0.));
#128=CARTESIAN_POINT('',(0.,0.,0.));
#129=CARTESIAN_POINT('Origin',(0.,11.8025818570827,0.));
#130=CARTESIAN_POINT('',(-6.,10.,-7.34788079488412E-16));
#131=CARTESIAN_POINT('Origin',(0.,10.,0.));
#132=CARTESIAN_POINT('',(0.,13.6051637141654,0.));
#133=CARTESIAN_POINT('',(-3.,11.8025818570827,-3.67394039744206E-16));
#134=CARTESIAN_POINT('Origin',(0.,5.,0.));
#135=CARTESIAN_POINT('',(-6.,0.,-7.34788079488412E-16));
#136=CARTESIAN_POINT('Origin',(0.,0.,0.));
#137=CARTESIAN_POINT('',(-6.,5.,-7.34788079488412E-16));
#138=CARTESIAN_POINT('Origin',(0.,7.50000000000001,0.));
#139=CARTESIAN_POINT('',(-6.99999999999999,5.55111512312578E-15,-8.57252759403147E-16));
#140=CARTESIAN_POINT('Origin',(0.,6.66133814775094E-15,0.));
#141=CARTESIAN_POINT('',(-6.99999999999999,15.,-8.57252759403147E-16));
#142=CARTESIAN_POINT('',(-6.99999999999999,7.50000000000001,-8.57252759403147E-16));
#143=CARTESIAN_POINT('Origin',(0.,15.,0.));
#144=CARTESIAN_POINT('Origin',(0.,0.,0.));
#145=CARTESIAN_POINT('Origin',(-3.33066907387547E-15,5.25320565519104,0.));
#146=UNCERTAINTY_MEASURE_WITH_UNIT(LENGTH_MEASURE(0.01),#150,
'DISTANCE_ACCURACY_VALUE',
'Maximum model space distance between geometric entities at asserted c
onnectivities');
#147=UNCERTAINTY_MEASURE_WITH_UNIT(LENGTH_MEASURE(0.01),#150,
'DISTANCE_ACCURACY_VALUE',
'Maximum model space distance between geometric entities at asserted c
onnectivities');
#148=(
GEOMETRIC_REPRESENTATION_CONTEXT(3)
GLOBAL_UNCERTAINTY_ASSIGNED_CONTEXT((#146))
GLOBAL_UNIT_ASSIGNED_CONTEXT((#150,#152,#153))
REPRESENTATION_CONTEXT('','3D')
);
#149=(
GEOMETRIC_REPRESENTATION_CONTEXT(3)
GLOBAL_UNCERTAINTY_ASSIGNED_CONTEXT((#147))
GLOBAL_UNIT_ASSIGNED_CONTEXT((#150,#152,#153))
REPRESENTATION_CONTEXT('','3D')
);
#150=(
LENGTH_UNIT()
NAMED_UNIT(*)
SI_UNIT(.MILLI.,.METRE.)
);
#151=(
LENGTH_UNIT()
NAMED_UNIT(*)
SI_UNIT(.CENTI.,.METRE.)
);
#152=(
NAMED_UNIT(*)
PLANE_ANGLE_UNIT()
SI_UNIT($,.RADIAN.)
);
#153=(
NAMED_UNIT(*)
SI_UNIT($,.STERADIAN.)
SOLID_ANGLE_UNIT()
);
#154=SHAPE_DEFINITION_REPRESENTATION(#155,#156);
#155=PRODUCT_DEFINITION_SHAPE('',$,#158);
#156=SHAPE_REPRESENTATION('',(#95),#148);
#157=PRODUCT_DEFINITION_CONTEXT('part definition',#162,'design');
#158=PRODUCT_DEFINITION('41634','41634',#159,#157);
#159=PRODUCT_DEFINITION_FORMATION('',$,#164);
#160=PRODUCT_RELATED_PRODUCT_CATEGORY('41634','41634',(#164));
#161=APPLICATION_PROTOCOL_DEFINITION('international standard',
'automotive_design',2009,#162);
#162=APPLICATION_CONTEXT(
'Core Data for Automotive Mechanical Design Process');
#163=PRODUCT_CONTEXT('part definition',#162,'mechanical');
#164=PRODUCT('41634','41634',$,(#163));
#165=PRESENTATION_STYLE_ASSIGNMENT((#166));
#166=SURFACE_STYLE_USAGE(.BOTH.,#169);
#167=SURFACE_STYLE_RENDERING_WITH_PROPERTIES($,#173,(#168));
#168=SURFACE_STYLE_TRANSPARENT(0.);
#169=SURFACE_SIDE_STYLE('',(#170,#167));
#170=SURFACE_STYLE_FILL_AREA(#171);
#171=FILL_AREA_STYLE('',(#172));
#172=FILL_AREA_STYLE_COLOUR('',#173);
#173=COLOUR_RGB('',0.956862745098039,0.956862745098039,0.956862745098039);
ENDSEC;
END-ISO-10303-21;
