ISO-10303-21;
HEADER;
/* Generated by software containing ST-Developer
 * from STEP Tools, Inc. (www.steptools.com) 
 */

FILE_DESCRIPTION(
/* description */ (''),
/* implementation_level */ '2;1');

FILE_NAME(
/* name */ 
'C:\\Users\\O.Boryczka\\Desktop\\Korrigierte Zeichnungen\\Zierkappen V
2A\\41640.ipt.step',
/* time_stamp */ '2022-07-18T12:58:55+02:00',
/* author */ ('Abt. Technik'),
/* organization */ (''),
/* preprocessor_version */ 'ST-DEVELOPER v18.1',
/* originating_system */ 'Autodesk Inventor 2022',
/* authorisation */ '');

FILE_SCHEMA (('AUTOMOTIVE_DESIGN { 1 0 10303 214 3 1 1 }'));
ENDSEC;

DATA;
#10=MECHANICAL_DESIGN_GEOMETRIC_PRESENTATION_REPRESENTATION('',(#13),#389);
#11=SHAPE_REPRESENTATION_RELATIONSHIP('SRR','None',#396,#12);
#12=ADVANCED_BREP_SHAPE_REPRESENTATION('',(#14),#388);
#13=STYLED_ITEM('',(#405),#14);
#14=MANIFOLD_SOLID_BREP('Volumenk\X\F6rper1',#159);
#15=FACE_BOUND('',#67,.T.);
#16=FACE_BOUND('',#69,.T.);
#17=PLANE('',#200);
#18=PLANE('',#201);
#19=CONICAL_SURFACE('',#190,3.,1.02974425867665);
#20=CONICAL_SURFACE('',#194,3.,1.02974425867665);
#21=LINE('',#360,#27);
#22=LINE('',#366,#28);
#23=LINE('',#370,#29);
#24=LINE('',#375,#30);
#25=LINE('',#379,#31);
#26=LINE('',#383,#32);
#27=VECTOR('',#218,7.);
#28=VECTOR('',#225,3.);
#29=VECTOR('',#230,6.);
#30=VECTOR('',#235,3.);
#31=VECTOR('',#240,6.);
#32=VECTOR('',#245,7.);
#33=CYLINDRICAL_SURFACE('',#188,7.);
#34=CYLINDRICAL_SURFACE('',#192,6.);
#35=CYLINDRICAL_SURFACE('',#196,6.);
#36=CYLINDRICAL_SURFACE('',#198,7.);
#37=CIRCLE('',#184,7.);
#38=CIRCLE('',#185,7.);
#39=CIRCLE('',#186,7.);
#40=CIRCLE('',#187,7.);
#41=CIRCLE('',#189,7.);
#42=CIRCLE('',#191,6.);
#43=CIRCLE('',#193,6.);
#44=CIRCLE('',#195,6.);
#45=CIRCLE('',#197,6.);
#46=CIRCLE('',#199,7.);
#47=(
BOUNDED_SURFACE()
B_SPLINE_SURFACE(2,2,((#331,#332,#333),(#334,#335,#336),(#337,#338,#339),
(#340,#341,#342),(#343,#344,#345),(#346,#347,#348),(#349,#350,#351)),
 .UNSPECIFIED.,.F.,.F.,.F.)
B_SPLINE_SURFACE_WITH_KNOTS((3,2,2,3),(3,3),(-1.80394331579621,-0.601314438598465,
0.601314438599276,1.80394331579702),(-1.5707963267949,1.61750883007724E-14),
 .UNSPECIFIED.)
GEOMETRIC_REPRESENTATION_ITEM()
RATIONAL_B_SPLINE_SURFACE(((1.,0.707106781186542,1.),(0.824592714275587,
0.583075099981284,0.824592714275587),(1.,0.707106781186542,1.),(0.824592714275587,
0.583075099981284,0.824592714275587),(1.,0.707106781186542,1.),(0.824592714275587,
0.583075099981284,0.824592714275587),(1.,0.707106781186542,1.)))
REPRESENTATION_ITEM('')
SURFACE()
);
#48=FACE_OUTER_BOUND('',#58,.T.);
#49=FACE_OUTER_BOUND('',#59,.T.);
#50=FACE_OUTER_BOUND('',#60,.T.);
#51=FACE_OUTER_BOUND('',#61,.T.);
#52=FACE_OUTER_BOUND('',#62,.T.);
#53=FACE_OUTER_BOUND('',#63,.T.);
#54=FACE_OUTER_BOUND('',#64,.T.);
#55=FACE_OUTER_BOUND('',#65,.T.);
#56=FACE_OUTER_BOUND('',#66,.T.);
#57=FACE_OUTER_BOUND('',#68,.T.);
#58=EDGE_LOOP('',(#108,#109,#110,#111));
#59=EDGE_LOOP('',(#112,#113,#114,#115,#116,#117));
#60=EDGE_LOOP('',(#118,#119,#120,#121,#122,#123));
#61=EDGE_LOOP('',(#124,#125,#126));
#62=EDGE_LOOP('',(#127,#128,#129,#130));
#63=EDGE_LOOP('',(#131,#132,#133));
#64=EDGE_LOOP('',(#134,#135,#136,#137));
#65=EDGE_LOOP('',(#138,#139,#140,#141,#142,#143));
#66=EDGE_LOOP('',(#144));
#67=EDGE_LOOP('',(#145));
#68=EDGE_LOOP('',(#146));
#69=EDGE_LOOP('',(#147));
#70=ELLIPSE('',#182,11.4017542509914,7.);
#71=ELLIPSE('',#183,11.4017542509914,7.);
#72=B_SPLINE_CURVE_WITH_KNOTS('',3,(#303,#304,#305,#306,#307,#308,#309,
#310,#311,#312,#313,#314),.UNSPECIFIED.,.F.,.F.,(4,2,2,2,2,4),(-0.000335264041102025,
0.,0.0177930107940539,0.0342403687981045,0.0646550408349374,0.064990146172399),
 .UNSPECIFIED.);
#73=B_SPLINE_CURVE_WITH_KNOTS('',3,(#318,#319,#320,#321,#322,#323,#324,
#325,#326,#327,#328,#329),.UNSPECIFIED.,.F.,.F.,(4,2,2,2,2,4),(-0.000335264038051616,
0.,0.0304290752091954,0.0468842220725833,0.0646856590257941,0.0650210818266008),
 .UNSPECIFIED.);
#74=VERTEX_POINT('',#301);
#75=VERTEX_POINT('',#302);
#76=VERTEX_POINT('',#315);
#77=VERTEX_POINT('',#317);
#78=VERTEX_POINT('',#352);
#79=VERTEX_POINT('',#355);
#80=VERTEX_POINT('',#359);
#81=VERTEX_POINT('',#363);
#82=VERTEX_POINT('',#365);
#83=VERTEX_POINT('',#368);
#84=VERTEX_POINT('',#372);
#85=VERTEX_POINT('',#374);
#86=VERTEX_POINT('',#377);
#87=VERTEX_POINT('',#381);
#88=EDGE_CURVE('',#74,#75,#72,.T.);
#89=EDGE_CURVE('',#74,#76,#70,.T.);
#90=EDGE_CURVE('',#77,#76,#73,.T.);
#91=EDGE_CURVE('',#77,#75,#71,.T.);
#92=EDGE_CURVE('',#76,#78,#37,.T.);
#93=EDGE_CURVE('',#78,#74,#38,.T.);
#94=EDGE_CURVE('',#79,#75,#39,.T.);
#95=EDGE_CURVE('',#77,#79,#40,.T.);
#96=EDGE_CURVE('',#78,#80,#21,.T.);
#97=EDGE_CURVE('',#80,#80,#41,.T.);
#98=EDGE_CURVE('',#81,#81,#42,.T.);
#99=EDGE_CURVE('',#81,#82,#22,.T.);
#100=EDGE_CURVE('',#83,#83,#43,.T.);
#101=EDGE_CURVE('',#83,#81,#23,.T.);
#102=EDGE_CURVE('',#84,#84,#44,.T.);
#103=EDGE_CURVE('',#84,#85,#24,.T.);
#104=EDGE_CURVE('',#86,#86,#45,.T.);
#105=EDGE_CURVE('',#86,#84,#25,.T.);
#106=EDGE_CURVE('',#87,#87,#46,.T.);
#107=EDGE_CURVE('',#87,#79,#26,.T.);
#108=ORIENTED_EDGE('',*,*,#88,.F.);
#109=ORIENTED_EDGE('',*,*,#89,.T.);
#110=ORIENTED_EDGE('',*,*,#90,.F.);
#111=ORIENTED_EDGE('',*,*,#91,.T.);
#112=ORIENTED_EDGE('',*,*,#90,.T.);
#113=ORIENTED_EDGE('',*,*,#92,.T.);
#114=ORIENTED_EDGE('',*,*,#93,.T.);
#115=ORIENTED_EDGE('',*,*,#88,.T.);
#116=ORIENTED_EDGE('',*,*,#94,.F.);
#117=ORIENTED_EDGE('',*,*,#95,.F.);
#118=ORIENTED_EDGE('',*,*,#89,.F.);
#119=ORIENTED_EDGE('',*,*,#93,.F.);
#120=ORIENTED_EDGE('',*,*,#96,.T.);
#121=ORIENTED_EDGE('',*,*,#97,.F.);
#122=ORIENTED_EDGE('',*,*,#96,.F.);
#123=ORIENTED_EDGE('',*,*,#92,.F.);
#124=ORIENTED_EDGE('',*,*,#98,.T.);
#125=ORIENTED_EDGE('',*,*,#99,.T.);
#126=ORIENTED_EDGE('',*,*,#99,.F.);
#127=ORIENTED_EDGE('',*,*,#100,.F.);
#128=ORIENTED_EDGE('',*,*,#101,.T.);
#129=ORIENTED_EDGE('',*,*,#98,.F.);
#130=ORIENTED_EDGE('',*,*,#101,.F.);
#131=ORIENTED_EDGE('',*,*,#102,.T.);
#132=ORIENTED_EDGE('',*,*,#103,.T.);
#133=ORIENTED_EDGE('',*,*,#103,.F.);
#134=ORIENTED_EDGE('',*,*,#104,.F.);
#135=ORIENTED_EDGE('',*,*,#105,.T.);
#136=ORIENTED_EDGE('',*,*,#102,.F.);
#137=ORIENTED_EDGE('',*,*,#105,.F.);
#138=ORIENTED_EDGE('',*,*,#106,.F.);
#139=ORIENTED_EDGE('',*,*,#107,.T.);
#140=ORIENTED_EDGE('',*,*,#94,.T.);
#141=ORIENTED_EDGE('',*,*,#91,.F.);
#142=ORIENTED_EDGE('',*,*,#95,.T.);
#143=ORIENTED_EDGE('',*,*,#107,.F.);
#144=ORIENTED_EDGE('',*,*,#106,.T.);
#145=ORIENTED_EDGE('',*,*,#104,.T.);
#146=ORIENTED_EDGE('',*,*,#97,.T.);
#147=ORIENTED_EDGE('',*,*,#100,.T.);
#148=B_SPLINE_SURFACE_WITH_KNOTS('',3,3,((#251,#252,#253,#254,#255,#256,
#257,#258,#259,#260),(#261,#262,#263,#264,#265,#266,#267,#268,#269,#270),
(#271,#272,#273,#274,#275,#276,#277,#278,#279,#280),(#281,#282,#283,#284,
#285,#286,#287,#288,#289,#290),(#291,#292,#293,#294,#295,#296,#297,#298,
#299,#300)),.UNSPECIFIED.,.F.,.F.,.F.,(4,1,4),(4,1,1,1,1,1,1,4),(0.,0.571428571428571,
1.),(-1.35277920025745,-0.966270857326831,-0.579762514396207,-0.193254171465584,
0.19325417146504,0.579762514395663,0.966270857326286,1.35277920025691),
 .UNSPECIFIED.);
#149=ADVANCED_FACE('',(#48),#148,.T.);
#150=ADVANCED_FACE('',(#49),#47,.F.);
#151=ADVANCED_FACE('',(#50),#33,.T.);
#152=ADVANCED_FACE('',(#51),#19,.F.);
#153=ADVANCED_FACE('',(#52),#34,.F.);
#154=ADVANCED_FACE('',(#53),#20,.F.);
#155=ADVANCED_FACE('',(#54),#35,.F.);
#156=ADVANCED_FACE('',(#55),#36,.T.);
#157=ADVANCED_FACE('',(#56,#15),#17,.F.);
#158=ADVANCED_FACE('',(#57,#16),#18,.T.);
#159=CLOSED_SHELL('',(#149,#150,#151,#152,#153,#154,#155,#156,#157,#158));
#160=DERIVED_UNIT_ELEMENT(#163,1.);
#161=DERIVED_UNIT_ELEMENT(#391,-3.);
#162=DIMENSIONAL_EXPONENTS(1.,0.,0.,0.,0.,0.,0.);
#163=(
CONVERSION_BASED_UNIT('gram',#165)
MASS_UNIT()
NAMED_UNIT(#162)
);
#164=(
MASS_UNIT()
NAMED_UNIT(*)
SI_UNIT(.KILO.,.GRAM.)
);
#165=MASS_MEASURE_WITH_UNIT(MASS_MEASURE(0.001),#164);
#166=DERIVED_UNIT((#160,#161));
#167=MEASURE_REPRESENTATION_ITEM('density measure',
POSITIVE_RATIO_MEASURE(8.),#166);
#168=PROPERTY_DEFINITION_REPRESENTATION(#173,#170);
#169=PROPERTY_DEFINITION_REPRESENTATION(#174,#171);
#170=REPRESENTATION('material name',(#172),#388);
#171=REPRESENTATION('density',(#167),#388);
#172=DESCRIPTIVE_REPRESENTATION_ITEM('Edelstahl AISI 304',
'Edelstahl AISI 304');
#173=PROPERTY_DEFINITION('material property','material name',#398);
#174=PROPERTY_DEFINITION('material property','density of part',#398);
#175=DATE_TIME_ROLE('creation_date');
#176=APPLIED_DATE_AND_TIME_ASSIGNMENT(#177,#175,(#398));
#177=DATE_AND_TIME(#178,#179);
#178=CALENDAR_DATE(2021,10,6);
#179=LOCAL_TIME(0,0,0.,#180);
#180=COORDINATED_UNIVERSAL_TIME_OFFSET(0,0,.BEHIND.);
#181=AXIS2_PLACEMENT_3D('placement',#250,#202,#203);
#182=AXIS2_PLACEMENT_3D('',#316,#204,#205);
#183=AXIS2_PLACEMENT_3D('',#330,#206,#207);
#184=AXIS2_PLACEMENT_3D('',#353,#208,#209);
#185=AXIS2_PLACEMENT_3D('',#354,#210,#211);
#186=AXIS2_PLACEMENT_3D('',#356,#212,#213);
#187=AXIS2_PLACEMENT_3D('',#357,#214,#215);
#188=AXIS2_PLACEMENT_3D('',#358,#216,#217);
#189=AXIS2_PLACEMENT_3D('',#361,#219,#220);
#190=AXIS2_PLACEMENT_3D('',#362,#221,#222);
#191=AXIS2_PLACEMENT_3D('',#364,#223,#224);
#192=AXIS2_PLACEMENT_3D('',#367,#226,#227);
#193=AXIS2_PLACEMENT_3D('',#369,#228,#229);
#194=AXIS2_PLACEMENT_3D('',#371,#231,#232);
#195=AXIS2_PLACEMENT_3D('',#373,#233,#234);
#196=AXIS2_PLACEMENT_3D('',#376,#236,#237);
#197=AXIS2_PLACEMENT_3D('',#378,#238,#239);
#198=AXIS2_PLACEMENT_3D('',#380,#241,#242);
#199=AXIS2_PLACEMENT_3D('',#382,#243,#244);
#200=AXIS2_PLACEMENT_3D('',#384,#246,#247);
#201=AXIS2_PLACEMENT_3D('',#385,#248,#249);
#202=DIRECTION('axis',(0.,0.,1.));
#203=DIRECTION('refdir',(1.,0.,0.));
#204=DIRECTION('center_axis',(-0.61394061351492,0.789352217376326,-3.3534069117479E-17));
#205=DIRECTION('ref_axis',(0.789352217376326,0.61394061351492,0.));
#206=DIRECTION('center_axis',(0.789352217376326,-0.61394061351492,1.68912348147302E-17));
#207=DIRECTION('ref_axis',(0.61394061351492,0.789352217376326,0.));
#208=DIRECTION('center_axis',(-1.,9.91270557701033E-18,0.));
#209=DIRECTION('ref_axis',(9.91270557701033E-18,1.,0.));
#210=DIRECTION('center_axis',(-1.,9.91270557701033E-18,0.));
#211=DIRECTION('ref_axis',(9.91270557701033E-18,1.,0.));
#212=DIRECTION('center_axis',(-7.17453449155451E-16,1.,0.));
#213=DIRECTION('ref_axis',(1.,7.17453449155451E-16,0.));
#214=DIRECTION('center_axis',(-7.17453449155451E-16,1.,0.));
#215=DIRECTION('ref_axis',(1.,7.17453449155451E-16,0.));
#216=DIRECTION('center_axis',(-1.,9.91270557701033E-18,0.));
#217=DIRECTION('ref_axis',(9.91270557701033E-18,1.,0.));
#218=DIRECTION('',(1.,-9.91270557701033E-18,0.));
#219=DIRECTION('center_axis',(1.,-9.91270557701033E-18,0.));
#220=DIRECTION('ref_axis',(9.91270557701033E-18,1.,0.));
#221=DIRECTION('center_axis',(1.,-9.91270557701033E-18,0.));
#222=DIRECTION('ref_axis',(0.,0.,-1.));
#223=DIRECTION('center_axis',(1.,-9.91270557701033E-18,0.));
#224=DIRECTION('ref_axis',(0.,0.,-1.));
#225=DIRECTION('',(-0.515038074910054,1.10078139911395E-16,-0.857167300702112));
#226=DIRECTION('center_axis',(1.,-9.91270557701033E-18,0.));
#227=DIRECTION('ref_axis',(0.,0.,-1.));
#228=DIRECTION('center_axis',(-1.,9.91270557701033E-18,0.));
#229=DIRECTION('ref_axis',(0.,0.,-1.));
#230=DIRECTION('',(-1.,9.91270557701033E-18,0.));
#231=DIRECTION('center_axis',(-9.91270557701033E-18,1.,0.));
#232=DIRECTION('ref_axis',(-1.,-9.91270557701033E-18,0.));
#233=DIRECTION('center_axis',(-9.91270557701033E-18,1.,0.));
#234=DIRECTION('ref_axis',(-1.,-9.91270557701033E-18,0.));
#235=DIRECTION('',(-0.857167300702112,-0.515038074910054,1.04972719113862E-16));
#236=DIRECTION('center_axis',(-9.91270557701033E-18,1.,0.));
#237=DIRECTION('ref_axis',(-1.,-9.91270557701033E-18,0.));
#238=DIRECTION('center_axis',(7.17453449155451E-16,-1.,0.));
#239=DIRECTION('ref_axis',(-1.,-9.91270557701033E-18,0.));
#240=DIRECTION('',(9.91270557701033E-18,-1.,0.));
#241=DIRECTION('center_axis',(-9.91270557701034E-18,1.,0.));
#242=DIRECTION('ref_axis',(1.,9.91270557701032E-18,0.));
#243=DIRECTION('center_axis',(-7.17453449155451E-16,1.,0.));
#244=DIRECTION('ref_axis',(1.,7.17453449155451E-16,0.));
#245=DIRECTION('',(9.91270557701034E-18,-1.,0.));
#246=DIRECTION('center_axis',(7.17453449155451E-16,-1.,0.));
#247=DIRECTION('ref_axis',(0.,0.,-1.));
#248=DIRECTION('center_axis',(1.,-9.91270557701033E-18,0.));
#249=DIRECTION('ref_axis',(0.,0.,-1.));
#250=CARTESIAN_POINT('',(0.,0.,0.));
#251=CARTESIAN_POINT('Ctrl Pts',(1.94664702760554,1.51405879924875,-6.83429776585842));
#252=CARTESIAN_POINT('Ctrl Pts',(3.07872407242399,2.39456316744089,-6.63923231332603));
#253=CARTESIAN_POINT('Ctrl Pts',(5.24474603339488,4.07924691486269,-5.90496957239678));
#254=CARTESIAN_POINT('Ctrl Pts',(7.71900621870251,6.00367150343528,-3.9314105126222));
#255=CARTESIAN_POINT('Ctrl Pts',(9.05593612204061,7.04350587269825,-1.37837558766657));
#256=CARTESIAN_POINT('Ctrl Pts',(9.05493796387862,7.04272952746114,1.37825883777148));
#257=CARTESIAN_POINT('Ctrl Pts',(7.71988813478861,6.00435743816892,3.93173359814496));
#258=CARTESIAN_POINT('Ctrl Pts',(5.24416631902126,4.07879602590543,5.90467990044912));
#259=CARTESIAN_POINT('Ctrl Pts',(3.07872407242865,2.3945631674445,6.63923231332473));
#260=CARTESIAN_POINT('Ctrl Pts',(1.94664702761032,1.51405879925247,6.8342977658576));
#261=CARTESIAN_POINT('Ctrl Pts',(1.86293978996914,1.59384994914734,-6.81662096909817));
#262=CARTESIAN_POINT('Ctrl Pts',(2.94478290249345,2.51767687586966,-6.60114895891593));
#263=CARTESIAN_POINT('Ctrl Pts',(5.00586655108637,4.26811372218886,-5.7926260320725));
#264=CARTESIAN_POINT('Ctrl Pts',(7.29632393345273,6.1495315446241,-3.70389853434089));
#265=CARTESIAN_POINT('Ctrl Pts',(8.45021873798238,7.03677912879145,-1.23419602891664));
#266=CARTESIAN_POINT('Ctrl Pts',(8.45029855091999,7.0379176405435,1.23568589175351));
#267=CARTESIAN_POINT('Ctrl Pts',(7.29779763078944,6.15112774753216,3.70292408923662));
#268=CARTESIAN_POINT('Ctrl Pts',(5.00510585319033,4.26705617786041,5.792244624853));
#269=CARTESIAN_POINT('Ctrl Pts',(2.94478290249788,2.51767687587343,6.60114895891449));
#270=CARTESIAN_POINT('Ctrl Pts',(1.86293978997372,1.59384994915125,6.81662096909726));
#271=CARTESIAN_POINT('Ctrl Pts',(1.71645424522145,1.7373780422914,-6.80327135222903));
#272=CARTESIAN_POINT('Ctrl Pts',(2.71039981491612,2.74387360846988,-6.57233213289339));
#273=CARTESIAN_POINT('Ctrl Pts',(4.58688401640671,4.64645612016333,-5.70633865785507));
#274=CARTESIAN_POINT('Ctrl Pts',(6.55756203917596,6.66054500985679,-3.51335744697558));
#275=CARTESIAN_POINT('Ctrl Pts',(7.40342041837051,7.54140724006029,-1.10534849079095));
#276=CARTESIAN_POINT('Ctrl Pts',(7.40386389032551,7.54161864406349,1.10721526074851));
#277=CARTESIAN_POINT('Ctrl Pts',(6.55979525638202,6.66272584134689,3.51256368914611));
#278=CARTESIAN_POINT('Ctrl Pts',(4.58636989412469,4.64602588820268,5.705515498076));
#279=CARTESIAN_POINT('Ctrl Pts',(2.71039981492017,2.74387360847398,6.57233213289185));
#280=CARTESIAN_POINT('Ctrl Pts',(1.71645424522565,1.73737804229566,6.80327135222805));
#281=CARTESIAN_POINT('Ctrl Pts',(1.57390216167269,1.88386659937824,-6.82104016828823));
#282=CARTESIAN_POINT('Ctrl Pts',(2.48690075563982,2.978270311158,-6.61068561789779));
#283=CARTESIAN_POINT('Ctrl Pts',(4.22048614871894,5.06520615804423,-5.82035077688317));
#284=CARTESIAN_POINT('Ctrl Pts',(6.11272721423234,7.40167405366595,-3.76098805935013));
#285=CARTESIAN_POINT('Ctrl Pts',(7.03938985544416,8.60251759877849,-1.27119646385952));
#286=CARTESIAN_POINT('Ctrl Pts',(7.03951238032809,8.60182588886113,1.27192372141696));
#287=CARTESIAN_POINT('Ctrl Pts',(6.11403256143574,7.40293913529317,3.76070359017157));
#288=CARTESIAN_POINT('Ctrl Pts',(4.21980002570719,5.06469552086179,5.81995415762837));
#289=CARTESIAN_POINT('Ctrl Pts',(2.48690075564355,2.97827031116248,6.61068561789639));
#290=CARTESIAN_POINT('Ctrl Pts',(1.57390216167655,1.88386659938287,6.82104016828734));
#291=CARTESIAN_POINT('Ctrl Pts',(1.51405879924875,1.94664702760554,-6.83429776585842));
#292=CARTESIAN_POINT('Ctrl Pts',(2.39456316744088,3.078724072424,-6.63923231332603));
#293=CARTESIAN_POINT('Ctrl Pts',(4.07924691486269,5.24474603339489,-5.90496957239678));
#294=CARTESIAN_POINT('Ctrl Pts',(6.00367150343528,7.71900621870251,-3.9314105126222));
#295=CARTESIAN_POINT('Ctrl Pts',(7.04350587269825,9.05593612204061,-1.37837558766657));
#296=CARTESIAN_POINT('Ctrl Pts',(7.04272952746114,9.05493796387862,1.37825883777148));
#297=CARTESIAN_POINT('Ctrl Pts',(6.00435743816892,7.71988813478862,3.93173359814497));
#298=CARTESIAN_POINT('Ctrl Pts',(4.07879602590543,5.24416631902126,5.90467990044912));
#299=CARTESIAN_POINT('Ctrl Pts',(2.3945631674445,3.07872407242865,6.63923231332473));
#300=CARTESIAN_POINT('Ctrl Pts',(1.51405879925247,1.94664702761032,6.8342977658576));
#301=CARTESIAN_POINT('',(2.,1.55555555555556,6.82497230130498));
#302=CARTESIAN_POINT('',(1.55555555555556,2.,6.82497230130498));
#303=CARTESIAN_POINT('Ctrl Pts',(2.,1.55555555555556,6.82497230130498));
#304=CARTESIAN_POINT('Ctrl Pts',(1.99895934502167,1.55595273701009,6.82488177524995));
#305=CARTESIAN_POINT('Ctrl Pts',(1.99791941652931,1.55635189685898,6.8247915948566));
#306=CARTESIAN_POINT('Ctrl Pts',(1.94172848887479,1.57804241254134,6.8199342355063));
#307=CARTESIAN_POINT('Ctrl Pts',(1.88900268622556,1.60478187089736,6.81618260016523));
#308=CARTESIAN_POINT('Ctrl Pts',(1.79414037930019,1.66804426389929,6.81159828267515));
#309=CARTESIAN_POINT('Ctrl Pts',(1.75233822455594,1.70311959126925,6.810609054018));
#310=CARTESIAN_POINT('Ctrl Pts',(1.64502556280583,1.8165764346429,6.81150722739674));
#311=CARTESIAN_POINT('Ctrl Pts',(1.5931614873607,1.90256137767282,6.81654848015974));
#312=CARTESIAN_POINT('Ctrl Pts',(1.55635189687843,1.99791941647973,6.82479159485224));
#313=CARTESIAN_POINT('Ctrl Pts',(1.55595273699106,1.99895934507154,6.82488177525429));
#314=CARTESIAN_POINT('Ctrl Pts',(1.55555555555556,2.,6.82497230130498));
#315=CARTESIAN_POINT('',(2.,1.55555555555556,-6.82497230130498));
#316=CARTESIAN_POINT('Origin',(0.,0.,0.));
#317=CARTESIAN_POINT('',(1.55555555555556,2.,-6.82497230130498));
#318=CARTESIAN_POINT('Ctrl Pts',(1.55555555555556,2.,-6.82497230130498));
#319=CARTESIAN_POINT('Ctrl Pts',(1.55595273700648,1.99895934503114,-6.82488177525077));
#320=CARTESIAN_POINT('Ctrl Pts',(1.55635189686268,1.9979194165199,-6.82479159485577));
#321=CARTESIAN_POINT('Ctrl Pts',(1.5931614878991,1.90256137629218,-6.81654848003915));
#322=CARTESIAN_POINT('Ctrl Pts',(1.64502556291575,1.81657643455118,-6.8115072273994));
#323=CARTESIAN_POINT('Ctrl Pts',(1.75233822448062,1.7031195913356,-6.8106090540167));
#324=CARTESIAN_POINT('Ctrl Pts',(1.79414037923521,1.66804426394802,-6.81159828267278));
#325=CARTESIAN_POINT('Ctrl Pts',(1.88900268632327,1.60478187082634,-6.81618260016912));
#326=CARTESIAN_POINT('Ctrl Pts',(1.94172848984741,1.57804241216211,-6.81993423559124));
#327=CARTESIAN_POINT('Ctrl Pts',(1.9979194164807,1.55635189687805,-6.82479159485233));
#328=CARTESIAN_POINT('Ctrl Pts',(1.99895934507056,1.55595273699143,-6.8248817752542));
#329=CARTESIAN_POINT('Ctrl Pts',(2.,1.55555555555556,-6.82497230130498));
#330=CARTESIAN_POINT('Origin',(0.,0.,0.));
#331=CARTESIAN_POINT('Ctrl Pts',(2.,1.61728354915618,6.81060892443758));
#332=CARTESIAN_POINT('Ctrl Pts',(1.61728354915618,1.61728354915618,6.81060892443758));
#333=CARTESIAN_POINT('Ctrl Pts',(1.61728354915618,2.,6.81060892443758));
#334=CARTESIAN_POINT('Ctrl Pts',(2.,-3.05525864890186,7.92017573608378));
#335=CARTESIAN_POINT('Ctrl Pts',(-3.0552586489019,-3.0552586489019,7.92017573608378));
#336=CARTESIAN_POINT('Ctrl Pts',(-3.05525864890186,2.,7.92017573608378));
#337=CARTESIAN_POINT('Ctrl Pts',(2.,-5.77214899993071,3.96008786804017));
#338=CARTESIAN_POINT('Ctrl Pts',(-5.77214899993077,-5.77214899993077,3.96008786804017));
#339=CARTESIAN_POINT('Ctrl Pts',(-5.77214899993071,2.,3.96008786804017));
#340=CARTESIAN_POINT('Ctrl Pts',(2.,-8.48903935095955,-3.44391182238724E-12));
#341=CARTESIAN_POINT('Ctrl Pts',(-8.48903935095964,-8.48903935095964,-3.44391182238724E-12));
#342=CARTESIAN_POINT('Ctrl Pts',(-8.48903935095955,2.,-3.44391182238724E-12));
#343=CARTESIAN_POINT('Ctrl Pts',(2.,-5.7721489999275,-3.96008786804485));
#344=CARTESIAN_POINT('Ctrl Pts',(-5.77214899992756,-5.77214899992756,-3.96008786804485));
#345=CARTESIAN_POINT('Ctrl Pts',(-5.7721489999275,2.,-3.96008786804485));
#346=CARTESIAN_POINT('Ctrl Pts',(2.,-3.05525864889544,-7.92017573608625));
#347=CARTESIAN_POINT('Ctrl Pts',(-3.05525864889548,-3.05525864889548,-7.92017573608625));
#348=CARTESIAN_POINT('Ctrl Pts',(-3.05525864889544,2.,-7.92017573608625));
#349=CARTESIAN_POINT('Ctrl Pts',(2.,1.61728354916171,-6.81060892443627));
#350=CARTESIAN_POINT('Ctrl Pts',(1.6172835491617,1.6172835491617,-6.81060892443627));
#351=CARTESIAN_POINT('Ctrl Pts',(1.61728354916171,2.,-6.81060892443627));
#352=CARTESIAN_POINT('',(2.,-7.,8.57252759403147E-16));
#353=CARTESIAN_POINT('Origin',(2.,2.77555756156289E-16,0.));
#354=CARTESIAN_POINT('Origin',(2.,2.77555756156289E-16,0.));
#355=CARTESIAN_POINT('',(-7.,2.,8.57252759403147E-16));
#356=CARTESIAN_POINT('Origin',(0.,2.,0.));
#357=CARTESIAN_POINT('Origin',(0.,2.,0.));
#358=CARTESIAN_POINT('Origin',(30.,0.,0.));
#359=CARTESIAN_POINT('',(30.,-7.,8.57252759403147E-16));
#360=CARTESIAN_POINT('',(30.,-7.,8.57252759403147E-16));
#361=CARTESIAN_POINT('Origin',(30.,0.,0.));
#362=CARTESIAN_POINT('Origin',(14.1974181429173,1.56646341305866E-16,0.));
#363=CARTESIAN_POINT('',(16.,-5.96010201410267E-16,6.));
#364=CARTESIAN_POINT('Origin',(16.,1.38777878078145E-16,0.));
#365=CARTESIAN_POINT('',(12.3948362858346,1.74514804533587E-16,0.));
#366=CARTESIAN_POINT('',(14.1974181429173,-2.1074769843834E-16,3.));
#367=CARTESIAN_POINT('Origin',(23.,6.93889390390723E-17,0.));
#368=CARTESIAN_POINT('',(30.,-7.34788079488412E-16,6.));
#369=CARTESIAN_POINT('Origin',(30.,0.,0.));
#370=CARTESIAN_POINT('',(23.,-6.6539914044934E-16,6.));
#371=CARTESIAN_POINT('Origin',(1.56646341305866E-16,14.1974181429173,0.));
#372=CARTESIAN_POINT('',(6.,16.,-7.34788079488412E-16));
#373=CARTESIAN_POINT('Origin',(1.38777878078145E-16,16.,0.));
#374=CARTESIAN_POINT('',(1.74514804533587E-16,12.3948362858346,0.));
#375=CARTESIAN_POINT('',(3.,14.1974181429173,-3.67394039744206E-16));
#376=CARTESIAN_POINT('Origin',(6.93889390390723E-17,23.,0.));
#377=CARTESIAN_POINT('',(6.,30.,-7.34788079488412E-16));
#378=CARTESIAN_POINT('Origin',(3.85185988877447E-32,30.,0.));
#379=CARTESIAN_POINT('',(6.,23.,-7.34788079488412E-16));
#380=CARTESIAN_POINT('Origin',(2.77555756156289E-16,2.,0.));
#381=CARTESIAN_POINT('',(-7.,30.,8.57252759403147E-16));
#382=CARTESIAN_POINT('Origin',(0.,30.,0.));
#383=CARTESIAN_POINT('',(-7.,2.,8.57252759403147E-16));
#384=CARTESIAN_POINT('Origin',(0.,30.,0.));
#385=CARTESIAN_POINT('Origin',(30.,0.,0.));
#386=UNCERTAINTY_MEASURE_WITH_UNIT(LENGTH_MEASURE(0.01),#390,
'DISTANCE_ACCURACY_VALUE',
'Maximum model space distance between geometric entities at asserted c
onnectivities');
#387=UNCERTAINTY_MEASURE_WITH_UNIT(LENGTH_MEASURE(0.01),#390,
'DISTANCE_ACCURACY_VALUE',
'Maximum model space distance between geometric entities at asserted c
onnectivities');
#388=(
GEOMETRIC_REPRESENTATION_CONTEXT(3)
GLOBAL_UNCERTAINTY_ASSIGNED_CONTEXT((#386))
GLOBAL_UNIT_ASSIGNED_CONTEXT((#390,#392,#393))
REPRESENTATION_CONTEXT('','3D')
);
#389=(
GEOMETRIC_REPRESENTATION_CONTEXT(3)
GLOBAL_UNCERTAINTY_ASSIGNED_CONTEXT((#387))
GLOBAL_UNIT_ASSIGNED_CONTEXT((#390,#392,#393))
REPRESENTATION_CONTEXT('','3D')
);
#390=(
LENGTH_UNIT()
NAMED_UNIT(*)
SI_UNIT(.MILLI.,.METRE.)
);
#391=(
LENGTH_UNIT()
NAMED_UNIT(*)
SI_UNIT(.CENTI.,.METRE.)
);
#392=(
NAMED_UNIT(*)
PLANE_ANGLE_UNIT()
SI_UNIT($,.RADIAN.)
);
#393=(
NAMED_UNIT(*)
SI_UNIT($,.STERADIAN.)
SOLID_ANGLE_UNIT()
);
#394=SHAPE_DEFINITION_REPRESENTATION(#395,#396);
#395=PRODUCT_DEFINITION_SHAPE('',$,#398);
#396=SHAPE_REPRESENTATION('',(#181),#388);
#397=PRODUCT_DEFINITION_CONTEXT('part definition',#402,'design');
#398=PRODUCT_DEFINITION('41640','41640',#399,#397);
#399=PRODUCT_DEFINITION_FORMATION('',$,#404);
#400=PRODUCT_RELATED_PRODUCT_CATEGORY('41640','41640',(#404));
#401=APPLICATION_PROTOCOL_DEFINITION('international standard',
'automotive_design',2009,#402);
#402=APPLICATION_CONTEXT(
'Core Data for Automotive Mechanical Design Process');
#403=PRODUCT_CONTEXT('part definition',#402,'mechanical');
#404=PRODUCT('41640','41640',$,(#403));
#405=PRESENTATION_STYLE_ASSIGNMENT((#406));
#406=SURFACE_STYLE_USAGE(.BOTH.,#409);
#407=SURFACE_STYLE_RENDERING_WITH_PROPERTIES($,#413,(#408));
#408=SURFACE_STYLE_TRANSPARENT(0.);
#409=SURFACE_SIDE_STYLE('',(#410,#407));
#410=SURFACE_STYLE_FILL_AREA(#411);
#411=FILL_AREA_STYLE('',(#412));
#412=FILL_AREA_STYLE_COLOUR('',#413);
#413=COLOUR_RGB('',0.956862745098039,0.956862745098039,0.956862745098039);
ENDSEC;
END-ISO-10303-21;
