ISO-10303-21;
HEADER;
/* Generated by software containing ST-Developer
 * from STEP Tools, Inc. (www.steptools.com) 
 */

FILE_DESCRIPTION(
/* description */ (''),
/* implementation_level */ '2;1');

FILE_NAME(
/* name */ 
'C:\\Users\\O.Boryczka\\Desktop\\Korrigierte Zeichnungen\\Zierkappen V
2A\\41643.ipt.step',
/* time_stamp */ '2022-07-18T12:58:55+02:00',
/* author */ ('Abt. Technik'),
/* organization */ (''),
/* preprocessor_version */ 'ST-DEVELOPER v18.1',
/* originating_system */ 'Autodesk Inventor 2022',
/* authorisation */ '');

FILE_SCHEMA (('AUTOMOTIVE_DESIGN { 1 0 10303 214 3 1 1 }'));
ENDSEC;

DATA;
#10=MECHANICAL_DESIGN_GEOMETRIC_PRESENTATION_REPRESENTATION('',(#13),#228);
#11=SHAPE_REPRESENTATION_RELATIONSHIP('SRR','None',#235,#12);
#12=ADVANCED_BREP_SHAPE_REPRESENTATION('',(#14),#227);
#13=STYLED_ITEM('',(#244),#14);
#14=MANIFOLD_SOLID_BREP('Volumenk\X\F6rper1',#118);
#15=FACE_BOUND('',#39,.T.);
#16=FACE_BOUND('',#41,.T.);
#17=PLANE('',#154);
#18=PLANE('',#155);
#19=ELLIPSE('',#151,9.89949493661167,7.);
#20=CYLINDRICAL_SURFACE('',#143,6.);
#21=CYLINDRICAL_SURFACE('',#147,6.);
#22=CYLINDRICAL_SURFACE('',#149,7.);
#23=CYLINDRICAL_SURFACE('',#152,7.);
#24=FACE_OUTER_BOUND('',#32,.T.);
#25=FACE_OUTER_BOUND('',#33,.T.);
#26=FACE_OUTER_BOUND('',#34,.T.);
#27=FACE_OUTER_BOUND('',#35,.T.);
#28=FACE_OUTER_BOUND('',#36,.T.);
#29=FACE_OUTER_BOUND('',#37,.T.);
#30=FACE_OUTER_BOUND('',#38,.T.);
#31=FACE_OUTER_BOUND('',#40,.T.);
#32=EDGE_LOOP('',(#82,#83,#84));
#33=EDGE_LOOP('',(#85,#86,#87,#88));
#34=EDGE_LOOP('',(#89,#90,#91));
#35=EDGE_LOOP('',(#92,#93,#94,#95));
#36=EDGE_LOOP('',(#96,#97,#98,#99));
#37=EDGE_LOOP('',(#100,#101,#102,#103));
#38=EDGE_LOOP('',(#104));
#39=EDGE_LOOP('',(#105));
#40=EDGE_LOOP('',(#106));
#41=EDGE_LOOP('',(#107));
#42=LINE('',#199,#48);
#43=LINE('',#203,#49);
#44=LINE('',#208,#50);
#45=LINE('',#212,#51);
#46=LINE('',#217,#52);
#47=LINE('',#221,#53);
#48=VECTOR('',#162,3.);
#49=VECTOR('',#167,6.);
#50=VECTOR('',#172,3.);
#51=VECTOR('',#177,6.);
#52=VECTOR('',#182,7.);
#53=VECTOR('',#187,7.);
#54=CIRCLE('',#142,6.);
#55=CIRCLE('',#144,6.);
#56=CIRCLE('',#146,6.);
#57=CIRCLE('',#148,6.);
#58=CIRCLE('',#150,7.);
#59=CIRCLE('',#153,7.);
#60=VERTEX_POINT('',#196);
#61=VERTEX_POINT('',#198);
#62=VERTEX_POINT('',#201);
#63=VERTEX_POINT('',#205);
#64=VERTEX_POINT('',#207);
#65=VERTEX_POINT('',#210);
#66=VERTEX_POINT('',#214);
#67=VERTEX_POINT('',#216);
#68=VERTEX_POINT('',#220);
#69=EDGE_CURVE('',#60,#60,#54,.T.);
#70=EDGE_CURVE('',#60,#61,#42,.T.);
#71=EDGE_CURVE('',#62,#62,#55,.T.);
#72=EDGE_CURVE('',#62,#60,#43,.T.);
#73=EDGE_CURVE('',#63,#63,#56,.T.);
#74=EDGE_CURVE('',#63,#64,#44,.T.);
#75=EDGE_CURVE('',#65,#65,#57,.T.);
#76=EDGE_CURVE('',#65,#63,#45,.T.);
#77=EDGE_CURVE('',#66,#66,#58,.T.);
#78=EDGE_CURVE('',#66,#67,#46,.T.);
#79=EDGE_CURVE('',#67,#67,#19,.T.);
#80=EDGE_CURVE('',#67,#68,#47,.T.);
#81=EDGE_CURVE('',#68,#68,#59,.T.);
#82=ORIENTED_EDGE('',*,*,#69,.T.);
#83=ORIENTED_EDGE('',*,*,#70,.T.);
#84=ORIENTED_EDGE('',*,*,#70,.F.);
#85=ORIENTED_EDGE('',*,*,#71,.F.);
#86=ORIENTED_EDGE('',*,*,#72,.T.);
#87=ORIENTED_EDGE('',*,*,#69,.F.);
#88=ORIENTED_EDGE('',*,*,#72,.F.);
#89=ORIENTED_EDGE('',*,*,#73,.T.);
#90=ORIENTED_EDGE('',*,*,#74,.T.);
#91=ORIENTED_EDGE('',*,*,#74,.F.);
#92=ORIENTED_EDGE('',*,*,#75,.F.);
#93=ORIENTED_EDGE('',*,*,#76,.T.);
#94=ORIENTED_EDGE('',*,*,#73,.F.);
#95=ORIENTED_EDGE('',*,*,#76,.F.);
#96=ORIENTED_EDGE('',*,*,#77,.F.);
#97=ORIENTED_EDGE('',*,*,#78,.T.);
#98=ORIENTED_EDGE('',*,*,#79,.T.);
#99=ORIENTED_EDGE('',*,*,#78,.F.);
#100=ORIENTED_EDGE('',*,*,#79,.F.);
#101=ORIENTED_EDGE('',*,*,#80,.T.);
#102=ORIENTED_EDGE('',*,*,#81,.F.);
#103=ORIENTED_EDGE('',*,*,#80,.F.);
#104=ORIENTED_EDGE('',*,*,#77,.T.);
#105=ORIENTED_EDGE('',*,*,#75,.T.);
#106=ORIENTED_EDGE('',*,*,#81,.T.);
#107=ORIENTED_EDGE('',*,*,#71,.T.);
#108=CONICAL_SURFACE('',#141,3.,1.02974425867665);
#109=CONICAL_SURFACE('',#145,3.,1.02974425867665);
#110=ADVANCED_FACE('',(#24),#108,.F.);
#111=ADVANCED_FACE('',(#25),#20,.F.);
#112=ADVANCED_FACE('',(#26),#109,.F.);
#113=ADVANCED_FACE('',(#27),#21,.F.);
#114=ADVANCED_FACE('',(#28),#22,.T.);
#115=ADVANCED_FACE('',(#29),#23,.T.);
#116=ADVANCED_FACE('',(#30,#15),#17,.T.);
#117=ADVANCED_FACE('',(#31,#16),#18,.T.);
#118=CLOSED_SHELL('',(#110,#111,#112,#113,#114,#115,#116,#117));
#119=DERIVED_UNIT_ELEMENT(#122,1.);
#120=DERIVED_UNIT_ELEMENT(#230,-3.);
#121=DIMENSIONAL_EXPONENTS(1.,0.,0.,0.,0.,0.,0.);
#122=(
CONVERSION_BASED_UNIT('gram',#124)
MASS_UNIT()
NAMED_UNIT(#121)
);
#123=(
MASS_UNIT()
NAMED_UNIT(*)
SI_UNIT(.KILO.,.GRAM.)
);
#124=MASS_MEASURE_WITH_UNIT(MASS_MEASURE(0.001),#123);
#125=DERIVED_UNIT((#119,#120));
#126=MEASURE_REPRESENTATION_ITEM('density measure',
POSITIVE_RATIO_MEASURE(8.),#125);
#127=PROPERTY_DEFINITION_REPRESENTATION(#132,#129);
#128=PROPERTY_DEFINITION_REPRESENTATION(#133,#130);
#129=REPRESENTATION('material name',(#131),#227);
#130=REPRESENTATION('density',(#126),#227);
#131=DESCRIPTIVE_REPRESENTATION_ITEM('Edelstahl AISI 304',
'Edelstahl AISI 304');
#132=PROPERTY_DEFINITION('material property','material name',#237);
#133=PROPERTY_DEFINITION('material property','density of part',#237);
#134=DATE_TIME_ROLE('creation_date');
#135=APPLIED_DATE_AND_TIME_ASSIGNMENT(#136,#134,(#237));
#136=DATE_AND_TIME(#137,#138);
#137=CALENDAR_DATE(2021,10,6);
#138=LOCAL_TIME(0,0,0.,#139);
#139=COORDINATED_UNIVERSAL_TIME_OFFSET(0,0,.BEHIND.);
#140=AXIS2_PLACEMENT_3D('placement',#194,#156,#157);
#141=AXIS2_PLACEMENT_3D('',#195,#158,#159);
#142=AXIS2_PLACEMENT_3D('',#197,#160,#161);
#143=AXIS2_PLACEMENT_3D('',#200,#163,#164);
#144=AXIS2_PLACEMENT_3D('',#202,#165,#166);
#145=AXIS2_PLACEMENT_3D('',#204,#168,#169);
#146=AXIS2_PLACEMENT_3D('',#206,#170,#171);
#147=AXIS2_PLACEMENT_3D('',#209,#173,#174);
#148=AXIS2_PLACEMENT_3D('',#211,#175,#176);
#149=AXIS2_PLACEMENT_3D('',#213,#178,#179);
#150=AXIS2_PLACEMENT_3D('',#215,#180,#181);
#151=AXIS2_PLACEMENT_3D('',#218,#183,#184);
#152=AXIS2_PLACEMENT_3D('',#219,#185,#186);
#153=AXIS2_PLACEMENT_3D('',#222,#188,#189);
#154=AXIS2_PLACEMENT_3D('',#223,#190,#191);
#155=AXIS2_PLACEMENT_3D('',#224,#192,#193);
#156=DIRECTION('axis',(0.,0.,1.));
#157=DIRECTION('refdir',(1.,0.,0.));
#158=DIRECTION('center_axis',(1.,0.,0.));
#159=DIRECTION('ref_axis',(0.,0.,-1.));
#160=DIRECTION('center_axis',(1.,0.,0.));
#161=DIRECTION('ref_axis',(0.,0.,-1.));
#162=DIRECTION('',(-0.515038074910054,1.04972719113862E-16,-0.857167300702112));
#163=DIRECTION('center_axis',(1.,0.,0.));
#164=DIRECTION('ref_axis',(0.,0.,-1.));
#165=DIRECTION('center_axis',(-1.,0.,0.));
#166=DIRECTION('ref_axis',(0.,0.,-1.));
#167=DIRECTION('',(-1.,0.,0.));
#168=DIRECTION('center_axis',(0.,1.,0.));
#169=DIRECTION('ref_axis',(-1.,0.,0.));
#170=DIRECTION('center_axis',(0.,1.,0.));
#171=DIRECTION('ref_axis',(-1.,0.,0.));
#172=DIRECTION('',(-0.857167300702112,-0.515038074910054,1.04972719113862E-16));
#173=DIRECTION('center_axis',(0.,1.,0.));
#174=DIRECTION('ref_axis',(-1.,0.,0.));
#175=DIRECTION('center_axis',(0.,-1.,0.));
#176=DIRECTION('ref_axis',(-1.,0.,0.));
#177=DIRECTION('',(0.,-1.,0.));
#178=DIRECTION('center_axis',(0.,1.,0.));
#179=DIRECTION('ref_axis',(1.,0.,0.));
#180=DIRECTION('center_axis',(0.,1.,0.));
#181=DIRECTION('ref_axis',(1.,0.,0.));
#182=DIRECTION('',(0.,-1.,0.));
#183=DIRECTION('center_axis',(-0.707106781186548,0.707106781186548,0.));
#184=DIRECTION('ref_axis',(0.707106781186547,0.707106781186547,0.));
#185=DIRECTION('center_axis',(-1.,0.,0.));
#186=DIRECTION('ref_axis',(0.,1.,0.));
#187=DIRECTION('',(1.,0.,0.));
#188=DIRECTION('center_axis',(1.,0.,0.));
#189=DIRECTION('ref_axis',(0.,1.,0.));
#190=DIRECTION('center_axis',(0.,1.,0.));
#191=DIRECTION('ref_axis',(0.,0.,1.));
#192=DIRECTION('center_axis',(1.,0.,0.));
#193=DIRECTION('ref_axis',(0.,0.,-1.));
#194=CARTESIAN_POINT('',(0.,0.,0.));
#195=CARTESIAN_POINT('Origin',(14.1974181429173,0.,0.));
#196=CARTESIAN_POINT('',(16.,-7.34788079488412E-16,6.));
#197=CARTESIAN_POINT('Origin',(16.,0.,0.));
#198=CARTESIAN_POINT('',(12.3948362858346,0.,0.));
#199=CARTESIAN_POINT('',(14.1974181429173,-3.67394039744206E-16,3.));
#200=CARTESIAN_POINT('Origin',(23.,0.,0.));
#201=CARTESIAN_POINT('',(30.,-7.34788079488412E-16,6.));
#202=CARTESIAN_POINT('Origin',(30.,0.,0.));
#203=CARTESIAN_POINT('',(23.,-7.34788079488412E-16,6.));
#204=CARTESIAN_POINT('Origin',(0.,14.1974181429173,0.));
#205=CARTESIAN_POINT('',(6.,16.,-7.34788079488412E-16));
#206=CARTESIAN_POINT('Origin',(0.,16.,0.));
#207=CARTESIAN_POINT('',(0.,12.3948362858346,0.));
#208=CARTESIAN_POINT('',(3.,14.1974181429173,-3.67394039744206E-16));
#209=CARTESIAN_POINT('Origin',(0.,23.,0.));
#210=CARTESIAN_POINT('',(6.,30.,-7.34788079488412E-16));
#211=CARTESIAN_POINT('Origin',(0.,30.,0.));
#212=CARTESIAN_POINT('',(6.,23.,-7.34788079488412E-16));
#213=CARTESIAN_POINT('Origin',(0.,0.,0.));
#214=CARTESIAN_POINT('',(-7.,30.,8.57252759403147E-16));
#215=CARTESIAN_POINT('Origin',(0.,30.,0.));
#216=CARTESIAN_POINT('',(-7.,-7.,8.57252759403147E-16));
#217=CARTESIAN_POINT('',(-7.,0.,8.57252759403147E-16));
#218=CARTESIAN_POINT('Origin',(0.,0.,0.));
#219=CARTESIAN_POINT('Origin',(30.,0.,0.));
#220=CARTESIAN_POINT('',(30.,-7.,8.57252759403147E-16));
#221=CARTESIAN_POINT('',(30.,-7.,8.57252759403147E-16));
#222=CARTESIAN_POINT('Origin',(30.,0.,0.));
#223=CARTESIAN_POINT('Origin',(0.,30.,0.));
#224=CARTESIAN_POINT('Origin',(30.,0.,0.));
#225=UNCERTAINTY_MEASURE_WITH_UNIT(LENGTH_MEASURE(0.01),#229,
'DISTANCE_ACCURACY_VALUE',
'Maximum model space distance between geometric entities at asserted c
onnectivities');
#226=UNCERTAINTY_MEASURE_WITH_UNIT(LENGTH_MEASURE(0.01),#229,
'DISTANCE_ACCURACY_VALUE',
'Maximum model space distance between geometric entities at asserted c
onnectivities');
#227=(
GEOMETRIC_REPRESENTATION_CONTEXT(3)
GLOBAL_UNCERTAINTY_ASSIGNED_CONTEXT((#225))
GLOBAL_UNIT_ASSIGNED_CONTEXT((#229,#231,#232))
REPRESENTATION_CONTEXT('','3D')
);
#228=(
GEOMETRIC_REPRESENTATION_CONTEXT(3)
GLOBAL_UNCERTAINTY_ASSIGNED_CONTEXT((#226))
GLOBAL_UNIT_ASSIGNED_CONTEXT((#229,#231,#232))
REPRESENTATION_CONTEXT('','3D')
);
#229=(
LENGTH_UNIT()
NAMED_UNIT(*)
SI_UNIT(.MILLI.,.METRE.)
);
#230=(
LENGTH_UNIT()
NAMED_UNIT(*)
SI_UNIT(.CENTI.,.METRE.)
);
#231=(
NAMED_UNIT(*)
PLANE_ANGLE_UNIT()
SI_UNIT($,.RADIAN.)
);
#232=(
NAMED_UNIT(*)
SI_UNIT($,.STERADIAN.)
SOLID_ANGLE_UNIT()
);
#233=SHAPE_DEFINITION_REPRESENTATION(#234,#235);
#234=PRODUCT_DEFINITION_SHAPE('',$,#237);
#235=SHAPE_REPRESENTATION('',(#140),#227);
#236=PRODUCT_DEFINITION_CONTEXT('part definition',#241,'design');
#237=PRODUCT_DEFINITION('41643','41643',#238,#236);
#238=PRODUCT_DEFINITION_FORMATION('',$,#243);
#239=PRODUCT_RELATED_PRODUCT_CATEGORY('41643','41643',(#243));
#240=APPLICATION_PROTOCOL_DEFINITION('international standard',
'automotive_design',2009,#241);
#241=APPLICATION_CONTEXT(
'Core Data for Automotive Mechanical Design Process');
#242=PRODUCT_CONTEXT('part definition',#241,'mechanical');
#243=PRODUCT('41643','41643',$,(#242));
#244=PRESENTATION_STYLE_ASSIGNMENT((#245));
#245=SURFACE_STYLE_USAGE(.BOTH.,#248);
#246=SURFACE_STYLE_RENDERING_WITH_PROPERTIES($,#252,(#247));
#247=SURFACE_STYLE_TRANSPARENT(0.);
#248=SURFACE_SIDE_STYLE('',(#249,#246));
#249=SURFACE_STYLE_FILL_AREA(#250);
#250=FILL_AREA_STYLE('',(#251));
#251=FILL_AREA_STYLE_COLOUR('',#252);
#252=COLOUR_RGB('',0.956862745098039,0.956862745098039,0.956862745098039);
ENDSEC;
END-ISO-10303-21;
