ISO-10303-21;
HEADER;
/* Generated by software containing ST-Developer
 * from STEP Tools, Inc. (www.steptools.com) 
 */

FILE_DESCRIPTION(
/* description */ (''),
/* implementation_level */ '2;1');

FILE_NAME(
/* name */ 
'C:\\Users\\O.Boryczka\\Desktop\\Korrigierte Zeichnungen\\Zierkappen V
2A\\41648-gerade.ipt.step',
/* time_stamp */ '2022-07-18T12:58:57+02:00',
/* author */ ('Abt. Technik'),
/* organization */ (''),
/* preprocessor_version */ 'ST-DEVELOPER v18.1',
/* originating_system */ 'Autodesk Inventor 2022',
/* authorisation */ '');

FILE_SCHEMA (('AUTOMOTIVE_DESIGN { 1 0 10303 214 3 1 1 }'));
ENDSEC;

DATA;
#10=MECHANICAL_DESIGN_GEOMETRIC_PRESENTATION_REPRESENTATION('',(#13),#256);
#11=SHAPE_REPRESENTATION_RELATIONSHIP('SRR','None',#263,#12);
#12=ADVANCED_BREP_SHAPE_REPRESENTATION('',(#14),#255);
#13=STYLED_ITEM('',(#272),#14);
#14=MANIFOLD_SOLID_BREP('Volumenk\X\F6rper1',#129);
#15=FACE_BOUND('',#39,.T.);
#16=FACE_BOUND('',#41,.T.);
#17=TOROIDAL_SURFACE('',#164,55.0000000000001,52.0000000000001);
#18=PLANE('',#155);
#19=PLANE('',#159);
#20=PLANE('',#170);
#21=PLANE('',#171);
#22=FACE_OUTER_BOUND('',#31,.T.);
#23=FACE_OUTER_BOUND('',#32,.T.);
#24=FACE_OUTER_BOUND('',#33,.T.);
#25=FACE_OUTER_BOUND('',#34,.T.);
#26=FACE_OUTER_BOUND('',#35,.T.);
#27=FACE_OUTER_BOUND('',#36,.T.);
#28=FACE_OUTER_BOUND('',#37,.T.);
#29=FACE_OUTER_BOUND('',#38,.T.);
#30=FACE_OUTER_BOUND('',#40,.T.);
#31=EDGE_LOOP('',(#86,#87,#88,#89));
#32=EDGE_LOOP('',(#90));
#33=EDGE_LOOP('',(#91,#92,#93,#94));
#34=EDGE_LOOP('',(#95));
#35=EDGE_LOOP('',(#96,#97,#98,#99,#100));
#36=EDGE_LOOP('',(#101,#102,#103,#104,#105,#106));
#37=EDGE_LOOP('',(#107,#108,#109,#110,#111));
#38=EDGE_LOOP('',(#112));
#39=EDGE_LOOP('',(#113));
#40=EDGE_LOOP('',(#114));
#41=EDGE_LOOP('',(#115));
#42=LINE('',#223,#46);
#43=LINE('',#230,#47);
#44=LINE('',#238,#48);
#45=LINE('',#250,#49);
#46=VECTOR('',#178,6.);
#47=VECTOR('',#187,6.);
#48=VECTOR('',#196,6.99999999999998);
#49=VECTOR('',#213,7.);
#50=CIRCLE('',#153,6.);
#51=CIRCLE('',#154,6.);
#52=CIRCLE('',#157,6.);
#53=CIRCLE('',#158,6.);
#54=CIRCLE('',#161,6.99999999999999);
#55=CIRCLE('',#162,6.99999999999998);
#56=CIRCLE('',#163,6.99999999999999);
#57=CIRCLE('',#165,52.0000000000001);
#58=CIRCLE('',#166,7.);
#59=CIRCLE('',#167,7.);
#60=CIRCLE('',#169,7.);
#61=VERTEX_POINT('',#220);
#62=VERTEX_POINT('',#222);
#63=VERTEX_POINT('',#227);
#64=VERTEX_POINT('',#229);
#65=VERTEX_POINT('',#234);
#66=VERTEX_POINT('',#235);
#67=VERTEX_POINT('',#237);
#68=VERTEX_POINT('',#242);
#69=VERTEX_POINT('',#244);
#70=VERTEX_POINT('',#248);
#71=EDGE_CURVE('',#61,#61,#50,.T.);
#72=EDGE_CURVE('',#61,#62,#42,.T.);
#73=EDGE_CURVE('',#62,#62,#51,.T.);
#74=EDGE_CURVE('',#63,#63,#52,.T.);
#75=EDGE_CURVE('',#63,#64,#43,.T.);
#76=EDGE_CURVE('',#64,#64,#53,.T.);
#77=EDGE_CURVE('',#65,#66,#54,.T.);
#78=EDGE_CURVE('',#65,#67,#44,.T.);
#79=EDGE_CURVE('',#67,#67,#55,.T.);
#80=EDGE_CURVE('',#66,#65,#56,.T.);
#81=EDGE_CURVE('',#66,#68,#57,.T.);
#82=EDGE_CURVE('',#69,#68,#58,.T.);
#83=EDGE_CURVE('',#68,#69,#59,.T.);
#84=EDGE_CURVE('',#70,#70,#60,.T.);
#85=EDGE_CURVE('',#70,#69,#45,.T.);
#86=ORIENTED_EDGE('',*,*,#71,.F.);
#87=ORIENTED_EDGE('',*,*,#72,.T.);
#88=ORIENTED_EDGE('',*,*,#73,.F.);
#89=ORIENTED_EDGE('',*,*,#72,.F.);
#90=ORIENTED_EDGE('',*,*,#73,.T.);
#91=ORIENTED_EDGE('',*,*,#74,.F.);
#92=ORIENTED_EDGE('',*,*,#75,.T.);
#93=ORIENTED_EDGE('',*,*,#76,.F.);
#94=ORIENTED_EDGE('',*,*,#75,.F.);
#95=ORIENTED_EDGE('',*,*,#76,.T.);
#96=ORIENTED_EDGE('',*,*,#77,.F.);
#97=ORIENTED_EDGE('',*,*,#78,.T.);
#98=ORIENTED_EDGE('',*,*,#79,.T.);
#99=ORIENTED_EDGE('',*,*,#78,.F.);
#100=ORIENTED_EDGE('',*,*,#80,.F.);
#101=ORIENTED_EDGE('',*,*,#77,.T.);
#102=ORIENTED_EDGE('',*,*,#81,.T.);
#103=ORIENTED_EDGE('',*,*,#82,.F.);
#104=ORIENTED_EDGE('',*,*,#83,.F.);
#105=ORIENTED_EDGE('',*,*,#81,.F.);
#106=ORIENTED_EDGE('',*,*,#80,.T.);
#107=ORIENTED_EDGE('',*,*,#84,.F.);
#108=ORIENTED_EDGE('',*,*,#85,.T.);
#109=ORIENTED_EDGE('',*,*,#82,.T.);
#110=ORIENTED_EDGE('',*,*,#83,.T.);
#111=ORIENTED_EDGE('',*,*,#85,.F.);
#112=ORIENTED_EDGE('',*,*,#84,.T.);
#113=ORIENTED_EDGE('',*,*,#71,.T.);
#114=ORIENTED_EDGE('',*,*,#79,.F.);
#115=ORIENTED_EDGE('',*,*,#74,.T.);
#116=CYLINDRICAL_SURFACE('',#152,6.);
#117=CYLINDRICAL_SURFACE('',#156,6.);
#118=CYLINDRICAL_SURFACE('',#160,6.99999999999998);
#119=CYLINDRICAL_SURFACE('',#168,7.);
#120=ADVANCED_FACE('',(#22),#116,.F.);
#121=ADVANCED_FACE('',(#23),#18,.T.);
#122=ADVANCED_FACE('',(#24),#117,.F.);
#123=ADVANCED_FACE('',(#25),#19,.T.);
#124=ADVANCED_FACE('',(#26),#118,.T.);
#125=ADVANCED_FACE('',(#27),#17,.F.);
#126=ADVANCED_FACE('',(#28),#119,.T.);
#127=ADVANCED_FACE('',(#29,#15),#20,.T.);
#128=ADVANCED_FACE('',(#30,#16),#21,.T.);
#129=CLOSED_SHELL('',(#120,#121,#122,#123,#124,#125,#126,#127,#128));
#130=DERIVED_UNIT_ELEMENT(#133,1.);
#131=DERIVED_UNIT_ELEMENT(#258,-3.);
#132=DIMENSIONAL_EXPONENTS(1.,0.,0.,0.,0.,0.,0.);
#133=(
CONVERSION_BASED_UNIT('gram',#135)
MASS_UNIT()
NAMED_UNIT(#132)
);
#134=(
MASS_UNIT()
NAMED_UNIT(*)
SI_UNIT(.KILO.,.GRAM.)
);
#135=MASS_MEASURE_WITH_UNIT(MASS_MEASURE(0.001),#134);
#136=DERIVED_UNIT((#130,#131));
#137=MEASURE_REPRESENTATION_ITEM('density measure',
POSITIVE_RATIO_MEASURE(8.),#136);
#138=PROPERTY_DEFINITION_REPRESENTATION(#143,#140);
#139=PROPERTY_DEFINITION_REPRESENTATION(#144,#141);
#140=REPRESENTATION('material name',(#142),#255);
#141=REPRESENTATION('density',(#137),#255);
#142=DESCRIPTIVE_REPRESENTATION_ITEM('Edelstahl AISI 304',
'Edelstahl AISI 304');
#143=PROPERTY_DEFINITION('material property','material name',#265);
#144=PROPERTY_DEFINITION('material property','density of part',#265);
#145=DATE_TIME_ROLE('creation_date');
#146=APPLIED_DATE_AND_TIME_ASSIGNMENT(#147,#145,(#265));
#147=DATE_AND_TIME(#148,#149);
#148=CALENDAR_DATE(2021,10,6);
#149=LOCAL_TIME(0,0,0.,#150);
#150=COORDINATED_UNIVERSAL_TIME_OFFSET(0,0,.BEHIND.);
#151=AXIS2_PLACEMENT_3D('placement',#218,#172,#173);
#152=AXIS2_PLACEMENT_3D('',#219,#174,#175);
#153=AXIS2_PLACEMENT_3D('',#221,#176,#177);
#154=AXIS2_PLACEMENT_3D('',#224,#179,#180);
#155=AXIS2_PLACEMENT_3D('',#225,#181,#182);
#156=AXIS2_PLACEMENT_3D('',#226,#183,#184);
#157=AXIS2_PLACEMENT_3D('',#228,#185,#186);
#158=AXIS2_PLACEMENT_3D('',#231,#188,#189);
#159=AXIS2_PLACEMENT_3D('',#232,#190,#191);
#160=AXIS2_PLACEMENT_3D('',#233,#192,#193);
#161=AXIS2_PLACEMENT_3D('',#236,#194,#195);
#162=AXIS2_PLACEMENT_3D('',#239,#197,#198);
#163=AXIS2_PLACEMENT_3D('',#240,#199,#200);
#164=AXIS2_PLACEMENT_3D('',#241,#201,#202);
#165=AXIS2_PLACEMENT_3D('',#243,#203,#204);
#166=AXIS2_PLACEMENT_3D('',#245,#205,#206);
#167=AXIS2_PLACEMENT_3D('',#246,#207,#208);
#168=AXIS2_PLACEMENT_3D('',#247,#209,#210);
#169=AXIS2_PLACEMENT_3D('',#249,#211,#212);
#170=AXIS2_PLACEMENT_3D('',#251,#214,#215);
#171=AXIS2_PLACEMENT_3D('',#252,#216,#217);
#172=DIRECTION('axis',(0.,0.,1.));
#173=DIRECTION('refdir',(1.,0.,0.));
#174=DIRECTION('center_axis',(0.,-1.,0.));
#175=DIRECTION('ref_axis',(1.,0.,0.));
#176=DIRECTION('center_axis',(0.,1.,0.));
#177=DIRECTION('ref_axis',(1.,0.,0.));
#178=DIRECTION('',(0.,1.,0.));
#179=DIRECTION('center_axis',(0.,-1.,0.));
#180=DIRECTION('ref_axis',(1.,0.,0.));
#181=DIRECTION('center_axis',(0.,-1.,0.));
#182=DIRECTION('ref_axis',(1.,0.,0.));
#183=DIRECTION('center_axis',(0.,1.,0.));
#184=DIRECTION('ref_axis',(1.,0.,0.));
#185=DIRECTION('center_axis',(0.,-1.,0.));
#186=DIRECTION('ref_axis',(1.,0.,0.));
#187=DIRECTION('',(0.,-1.,0.));
#188=DIRECTION('center_axis',(0.,1.,0.));
#189=DIRECTION('ref_axis',(1.,0.,0.));
#190=DIRECTION('center_axis',(0.,1.,0.));
#191=DIRECTION('ref_axis',(1.,0.,0.));
#192=DIRECTION('center_axis',(0.,-1.,0.));
#193=DIRECTION('ref_axis',(1.,0.,0.));
#194=DIRECTION('center_axis',(0.,-1.,0.));
#195=DIRECTION('ref_axis',(1.,0.,0.));
#196=DIRECTION('',(0.,1.,0.));
#197=DIRECTION('center_axis',(0.,-1.,0.));
#198=DIRECTION('ref_axis',(1.,0.,0.));
#199=DIRECTION('center_axis',(0.,-1.,0.));
#200=DIRECTION('ref_axis',(1.,0.,0.));
#201=DIRECTION('center_axis',(0.,-1.,0.));
#202=DIRECTION('ref_axis',(0.,0.,-1.));
#203=DIRECTION('center_axis',(-1.,0.,-1.22464679914735E-16));
#204=DIRECTION('ref_axis',(-1.22464679914735E-16,0.,1.));
#205=DIRECTION('center_axis',(0.,-1.,0.));
#206=DIRECTION('ref_axis',(1.,0.,0.));
#207=DIRECTION('center_axis',(0.,-1.,0.));
#208=DIRECTION('ref_axis',(1.,0.,0.));
#209=DIRECTION('center_axis',(0.,-1.,0.));
#210=DIRECTION('ref_axis',(1.,0.,0.));
#211=DIRECTION('center_axis',(0.,-1.,0.));
#212=DIRECTION('ref_axis',(1.,0.,0.));
#213=DIRECTION('',(0.,1.,0.));
#214=DIRECTION('center_axis',(0.,-1.,0.));
#215=DIRECTION('ref_axis',(0.,0.,-1.));
#216=DIRECTION('center_axis',(0.,1.,0.));
#217=DIRECTION('ref_axis',(0.,0.,1.));
#218=CARTESIAN_POINT('',(0.,0.,0.));
#219=CARTESIAN_POINT('Origin',(0.,10.,0.));
#220=CARTESIAN_POINT('',(-6.,0.,-7.34788079488412E-16));
#221=CARTESIAN_POINT('Origin',(0.,0.,0.));
#222=CARTESIAN_POINT('',(-6.,20.,-7.34788079488412E-16));
#223=CARTESIAN_POINT('',(-6.,10.,-7.34788079488412E-16));
#224=CARTESIAN_POINT('Origin',(0.,20.,0.));
#225=CARTESIAN_POINT('Origin',(0.,20.,0.));
#226=CARTESIAN_POINT('Origin',(0.,70.,0.));
#227=CARTESIAN_POINT('',(-6.,80.,7.34788079488412E-16));
#228=CARTESIAN_POINT('Origin',(0.,80.,0.));
#229=CARTESIAN_POINT('',(-6.,60.,7.34788079488412E-16));
#230=CARTESIAN_POINT('',(-6.,70.,7.34788079488412E-16));
#231=CARTESIAN_POINT('Origin',(0.,60.,0.));
#232=CARTESIAN_POINT('Origin',(0.,60.,0.));
#233=CARTESIAN_POINT('Origin',(0.,70.,0.));
#234=CARTESIAN_POINT('',(-6.99999999999998,60.,-8.57252759403145E-16));
#235=CARTESIAN_POINT('',(-8.57252759403146E-16,60.,6.99999999999999));
#236=CARTESIAN_POINT('Origin',(0.,60.,0.));
#237=CARTESIAN_POINT('',(-6.99999999999998,80.,-8.57252759403145E-16));
#238=CARTESIAN_POINT('',(-6.99999999999998,70.,-8.57252759403145E-16));
#239=CARTESIAN_POINT('Origin',(0.,80.,0.));
#240=CARTESIAN_POINT('Origin',(0.,60.,0.));
#241=CARTESIAN_POINT('Origin',(0.,40.,0.));
#242=CARTESIAN_POINT('',(-8.57252759403147E-16,20.,7.));
#243=CARTESIAN_POINT('Origin',(-6.73555739531046E-15,40.,55.0000000000001));
#244=CARTESIAN_POINT('',(-7.,20.,-8.57252759403147E-16));
#245=CARTESIAN_POINT('Origin',(0.,20.,0.));
#246=CARTESIAN_POINT('Origin',(0.,20.,0.));
#247=CARTESIAN_POINT('Origin',(0.,10.,0.));
#248=CARTESIAN_POINT('',(-7.,0.,-8.57252759403147E-16));
#249=CARTESIAN_POINT('Origin',(0.,0.,0.));
#250=CARTESIAN_POINT('',(-7.,10.,-8.57252759403147E-16));
#251=CARTESIAN_POINT('Origin',(0.,0.,0.));
#252=CARTESIAN_POINT('Origin',(6.99999999999998,80.,0.));
#253=UNCERTAINTY_MEASURE_WITH_UNIT(LENGTH_MEASURE(0.01),#257,
'DISTANCE_ACCURACY_VALUE',
'Maximum model space distance between geometric entities at asserted c
onnectivities');
#254=UNCERTAINTY_MEASURE_WITH_UNIT(LENGTH_MEASURE(0.01),#257,
'DISTANCE_ACCURACY_VALUE',
'Maximum model space distance between geometric entities at asserted c
onnectivities');
#255=(
GEOMETRIC_REPRESENTATION_CONTEXT(3)
GLOBAL_UNCERTAINTY_ASSIGNED_CONTEXT((#253))
GLOBAL_UNIT_ASSIGNED_CONTEXT((#257,#259,#260))
REPRESENTATION_CONTEXT('','3D')
);
#256=(
GEOMETRIC_REPRESENTATION_CONTEXT(3)
GLOBAL_UNCERTAINTY_ASSIGNED_CONTEXT((#254))
GLOBAL_UNIT_ASSIGNED_CONTEXT((#257,#259,#260))
REPRESENTATION_CONTEXT('','3D')
);
#257=(
LENGTH_UNIT()
NAMED_UNIT(*)
SI_UNIT(.MILLI.,.METRE.)
);
#258=(
LENGTH_UNIT()
NAMED_UNIT(*)
SI_UNIT(.CENTI.,.METRE.)
);
#259=(
NAMED_UNIT(*)
PLANE_ANGLE_UNIT()
SI_UNIT($,.RADIAN.)
);
#260=(
NAMED_UNIT(*)
SI_UNIT($,.STERADIAN.)
SOLID_ANGLE_UNIT()
);
#261=SHAPE_DEFINITION_REPRESENTATION(#262,#263);
#262=PRODUCT_DEFINITION_SHAPE('',$,#265);
#263=SHAPE_REPRESENTATION('',(#151),#255);
#264=PRODUCT_DEFINITION_CONTEXT('part definition',#269,'design');
#265=PRODUCT_DEFINITION('41648-gerade','41648-gerade',#266,#264);
#266=PRODUCT_DEFINITION_FORMATION('',$,#271);
#267=PRODUCT_RELATED_PRODUCT_CATEGORY('41648-gerade','41648-gerade',(#271));
#268=APPLICATION_PROTOCOL_DEFINITION('international standard',
'automotive_design',2009,#269);
#269=APPLICATION_CONTEXT(
'Core Data for Automotive Mechanical Design Process');
#270=PRODUCT_CONTEXT('part definition',#269,'mechanical');
#271=PRODUCT('41648-gerade','41648-gerade',$,(#270));
#272=PRESENTATION_STYLE_ASSIGNMENT((#273));
#273=SURFACE_STYLE_USAGE(.BOTH.,#276);
#274=SURFACE_STYLE_RENDERING_WITH_PROPERTIES($,#280,(#275));
#275=SURFACE_STYLE_TRANSPARENT(0.);
#276=SURFACE_SIDE_STYLE('',(#277,#274));
#277=SURFACE_STYLE_FILL_AREA(#278);
#278=FILL_AREA_STYLE('',(#279));
#279=FILL_AREA_STYLE_COLOUR('',#280);
#280=COLOUR_RGB('',0.956862745098039,0.956862745098039,0.956862745098039);
ENDSEC;
END-ISO-10303-21;
