ISO-10303-21;
HEADER;
/* Generated by software containing ST-Developer
 * from STEP Tools, Inc. (www.steptools.com) 
 */

FILE_DESCRIPTION(
/* description */ (''),
/* implementation_level */ '2;1');

FILE_NAME(
/* name */ 
'C:\\Users\\O.Boryczka\\Desktop\\Korrigierte Zeichnungen\\Anschwei\X\DF
laschen V2A\\IPT_Daten\\41655.ipt.step',
/* time_stamp */ '2022-07-18T12:53:09+02:00',
/* author */ ('Nutzer'),
/* organization */ (''),
/* preprocessor_version */ 'ST-DEVELOPER v18.1',
/* originating_system */ 'Autodesk Inventor 2022',
/* authorisation */ '');

FILE_SCHEMA (('AUTOMOTIVE_DESIGN { 1 0 10303 214 3 1 1 }'));
ENDSEC;

DATA;
#10=MECHANICAL_DESIGN_GEOMETRIC_PRESENTATION_REPRESENTATION('',(#13),#194);
#11=SHAPE_REPRESENTATION_RELATIONSHIP('SRR','None',#201,#12);
#12=ADVANCED_BREP_SHAPE_REPRESENTATION('',(#14),#193);
#13=STYLED_ITEM('',(#210),#14);
#14=MANIFOLD_SOLID_BREP('Volumenk\X\F6rper1',#105);
#15=CIRCLE('',#130,16.85);
#16=CIRCLE('',#131,16.85);
#17=CYLINDRICAL_SURFACE('',#129,16.85);
#18=FACE_OUTER_BOUND('',#24,.T.);
#19=FACE_OUTER_BOUND('',#25,.T.);
#20=FACE_OUTER_BOUND('',#26,.T.);
#21=FACE_OUTER_BOUND('',#27,.T.);
#22=FACE_OUTER_BOUND('',#28,.T.);
#23=FACE_OUTER_BOUND('',#29,.T.);
#24=EDGE_LOOP('',(#70,#71,#72,#73));
#25=EDGE_LOOP('',(#74,#75,#76,#77));
#26=EDGE_LOOP('',(#78,#79,#80,#81));
#27=EDGE_LOOP('',(#82,#83,#84,#85));
#28=EDGE_LOOP('',(#86,#87,#88,#89));
#29=EDGE_LOOP('',(#90,#91,#92,#93));
#30=LINE('',#168,#40);
#31=LINE('',#170,#41);
#32=LINE('',#172,#42);
#33=LINE('',#173,#43);
#34=LINE('',#179,#44);
#35=LINE('',#182,#45);
#36=LINE('',#184,#46);
#37=LINE('',#185,#47);
#38=LINE('',#187,#48);
#39=LINE('',#188,#49);
#40=VECTOR('',#140,10.);
#41=VECTOR('',#141,10.);
#42=VECTOR('',#142,10.);
#43=VECTOR('',#143,10.);
#44=VECTOR('',#150,10.);
#45=VECTOR('',#153,10.);
#46=VECTOR('',#154,10.);
#47=VECTOR('',#155,10.);
#48=VECTOR('',#158,10.);
#49=VECTOR('',#159,10.);
#50=VERTEX_POINT('',#166);
#51=VERTEX_POINT('',#167);
#52=VERTEX_POINT('',#169);
#53=VERTEX_POINT('',#171);
#54=VERTEX_POINT('',#175);
#55=VERTEX_POINT('',#177);
#56=VERTEX_POINT('',#181);
#57=VERTEX_POINT('',#183);
#58=EDGE_CURVE('',#50,#51,#30,.T.);
#59=EDGE_CURVE('',#51,#52,#31,.T.);
#60=EDGE_CURVE('',#53,#52,#32,.T.);
#61=EDGE_CURVE('',#50,#53,#33,.T.);
#62=EDGE_CURVE('',#54,#50,#15,.T.);
#63=EDGE_CURVE('',#55,#53,#16,.T.);
#64=EDGE_CURVE('',#54,#55,#34,.T.);
#65=EDGE_CURVE('',#56,#54,#35,.T.);
#66=EDGE_CURVE('',#57,#55,#36,.T.);
#67=EDGE_CURVE('',#56,#57,#37,.T.);
#68=EDGE_CURVE('',#51,#56,#38,.T.);
#69=EDGE_CURVE('',#52,#57,#39,.T.);
#70=ORIENTED_EDGE('',*,*,#58,.T.);
#71=ORIENTED_EDGE('',*,*,#59,.T.);
#72=ORIENTED_EDGE('',*,*,#60,.F.);
#73=ORIENTED_EDGE('',*,*,#61,.F.);
#74=ORIENTED_EDGE('',*,*,#62,.T.);
#75=ORIENTED_EDGE('',*,*,#61,.T.);
#76=ORIENTED_EDGE('',*,*,#63,.F.);
#77=ORIENTED_EDGE('',*,*,#64,.F.);
#78=ORIENTED_EDGE('',*,*,#65,.T.);
#79=ORIENTED_EDGE('',*,*,#64,.T.);
#80=ORIENTED_EDGE('',*,*,#66,.F.);
#81=ORIENTED_EDGE('',*,*,#67,.F.);
#82=ORIENTED_EDGE('',*,*,#68,.T.);
#83=ORIENTED_EDGE('',*,*,#67,.T.);
#84=ORIENTED_EDGE('',*,*,#69,.F.);
#85=ORIENTED_EDGE('',*,*,#59,.F.);
#86=ORIENTED_EDGE('',*,*,#69,.T.);
#87=ORIENTED_EDGE('',*,*,#66,.T.);
#88=ORIENTED_EDGE('',*,*,#63,.T.);
#89=ORIENTED_EDGE('',*,*,#60,.T.);
#90=ORIENTED_EDGE('',*,*,#68,.F.);
#91=ORIENTED_EDGE('',*,*,#58,.F.);
#92=ORIENTED_EDGE('',*,*,#62,.F.);
#93=ORIENTED_EDGE('',*,*,#65,.F.);
#94=PLANE('',#128);
#95=PLANE('',#132);
#96=PLANE('',#133);
#97=PLANE('',#134);
#98=PLANE('',#135);
#99=ADVANCED_FACE('',(#18),#94,.T.);
#100=ADVANCED_FACE('',(#19),#17,.F.);
#101=ADVANCED_FACE('',(#20),#95,.T.);
#102=ADVANCED_FACE('',(#21),#96,.T.);
#103=ADVANCED_FACE('',(#22),#97,.T.);
#104=ADVANCED_FACE('',(#23),#98,.F.);
#105=CLOSED_SHELL('',(#99,#100,#101,#102,#103,#104));
#106=DERIVED_UNIT_ELEMENT(#109,1.);
#107=DERIVED_UNIT_ELEMENT(#196,-3.);
#108=DIMENSIONAL_EXPONENTS(1.,0.,0.,0.,0.,0.,0.);
#109=(
CONVERSION_BASED_UNIT('gram',#111)
MASS_UNIT()
NAMED_UNIT(#108)
);
#110=(
MASS_UNIT()
NAMED_UNIT(*)
SI_UNIT(.KILO.,.GRAM.)
);
#111=MASS_MEASURE_WITH_UNIT(MASS_MEASURE(0.001),#110);
#112=DERIVED_UNIT((#106,#107));
#113=MEASURE_REPRESENTATION_ITEM('density measure',
POSITIVE_RATIO_MEASURE(8.),#112);
#114=PROPERTY_DEFINITION_REPRESENTATION(#119,#116);
#115=PROPERTY_DEFINITION_REPRESENTATION(#120,#117);
#116=REPRESENTATION('material name',(#118),#193);
#117=REPRESENTATION('density',(#113),#193);
#118=DESCRIPTIVE_REPRESENTATION_ITEM('Edelstahl AISI 304',
'Edelstahl AISI 304');
#119=PROPERTY_DEFINITION('material property','material name',#203);
#120=PROPERTY_DEFINITION('material property','density of part',#203);
#121=DATE_TIME_ROLE('creation_date');
#122=APPLIED_DATE_AND_TIME_ASSIGNMENT(#123,#121,(#203));
#123=DATE_AND_TIME(#124,#125);
#124=CALENDAR_DATE(2021,21,4);
#125=LOCAL_TIME(0,0,0.,#126);
#126=COORDINATED_UNIVERSAL_TIME_OFFSET(0,0,.BEHIND.);
#127=AXIS2_PLACEMENT_3D('placement',#164,#136,#137);
#128=AXIS2_PLACEMENT_3D('',#165,#138,#139);
#129=AXIS2_PLACEMENT_3D('',#174,#144,#145);
#130=AXIS2_PLACEMENT_3D('',#176,#146,#147);
#131=AXIS2_PLACEMENT_3D('',#178,#148,#149);
#132=AXIS2_PLACEMENT_3D('',#180,#151,#152);
#133=AXIS2_PLACEMENT_3D('',#186,#156,#157);
#134=AXIS2_PLACEMENT_3D('',#189,#160,#161);
#135=AXIS2_PLACEMENT_3D('',#190,#162,#163);
#136=DIRECTION('axis',(0.,0.,1.));
#137=DIRECTION('refdir',(1.,0.,0.));
#138=DIRECTION('center_axis',(-8.88178419700125E-17,0.,-1.));
#139=DIRECTION('ref_axis',(-1.,0.,8.88178419700125E-17));
#140=DIRECTION('',(-1.,0.,8.88178419700125E-17));
#141=DIRECTION('',(0.,1.,0.));
#142=DIRECTION('',(-1.,0.,8.88178419700125E-17));
#143=DIRECTION('',(0.,1.,0.));
#144=DIRECTION('center_axis',(0.,1.,0.));
#145=DIRECTION('ref_axis',(0.455554852807802,0.,0.890207715133531));
#146=DIRECTION('center_axis',(0.,-1.,0.));
#147=DIRECTION('ref_axis',(0.455554852807802,0.,0.890207715133531));
#148=DIRECTION('center_axis',(0.,-1.,0.));
#149=DIRECTION('ref_axis',(0.455554852807802,0.,0.890207715133531));
#150=DIRECTION('',(0.,1.,0.));
#151=DIRECTION('center_axis',(0.,0.,1.));
#152=DIRECTION('ref_axis',(1.,0.,0.));
#153=DIRECTION('',(1.,0.,0.));
#154=DIRECTION('',(1.,0.,0.));
#155=DIRECTION('',(0.,1.,0.));
#156=DIRECTION('center_axis',(-1.,0.,0.));
#157=DIRECTION('ref_axis',(0.,0.,1.));
#158=DIRECTION('',(0.,0.,1.));
#159=DIRECTION('',(0.,0.,1.));
#160=DIRECTION('center_axis',(0.,1.,0.));
#161=DIRECTION('ref_axis',(0.,0.,1.));
#162=DIRECTION('center_axis',(0.,1.,0.));
#163=DIRECTION('ref_axis',(0.,0.,1.));
#164=CARTESIAN_POINT('',(0.,0.,0.));
#165=CARTESIAN_POINT('Origin',(0.,0.,-30.));
#166=CARTESIAN_POINT('',(0.,0.,-30.));
#167=CARTESIAN_POINT('',(-100.,0.,-30.));
#168=CARTESIAN_POINT('',(0.,0.,-30.));
#169=CARTESIAN_POINT('',(-100.,6.,-30.));
#170=CARTESIAN_POINT('',(-100.,0.,-30.));
#171=CARTESIAN_POINT('',(0.,6.,-30.));
#172=CARTESIAN_POINT('',(0.,6.,-30.));
#173=CARTESIAN_POINT('',(0.,0.,-30.));
#174=CARTESIAN_POINT('Origin',(7.67609926981146,0.,-15.));
#175=CARTESIAN_POINT('',(0.,0.,0.));
#176=CARTESIAN_POINT('Origin',(7.67609926981146,0.,-15.));
#177=CARTESIAN_POINT('',(0.,6.,0.));
#178=CARTESIAN_POINT('Origin',(7.67609926981146,6.,-15.));
#179=CARTESIAN_POINT('',(0.,0.,0.));
#180=CARTESIAN_POINT('Origin',(-100.,0.,0.));
#181=CARTESIAN_POINT('',(-100.,0.,0.));
#182=CARTESIAN_POINT('',(-100.,0.,0.));
#183=CARTESIAN_POINT('',(-100.,6.,0.));
#184=CARTESIAN_POINT('',(-100.,6.,0.));
#185=CARTESIAN_POINT('',(-100.,0.,0.));
#186=CARTESIAN_POINT('Origin',(-100.,0.,-30.));
#187=CARTESIAN_POINT('',(-100.,0.,-30.));
#188=CARTESIAN_POINT('',(-100.,6.,-30.));
#189=CARTESIAN_POINT('Origin',(-50.,6.,-15.));
#190=CARTESIAN_POINT('Origin',(-50.,0.,-15.));
#191=UNCERTAINTY_MEASURE_WITH_UNIT(LENGTH_MEASURE(0.01),#195,
'DISTANCE_ACCURACY_VALUE',
'Maximum model space distance between geometric entities at asserted c
onnectivities');
#192=UNCERTAINTY_MEASURE_WITH_UNIT(LENGTH_MEASURE(0.01),#195,
'DISTANCE_ACCURACY_VALUE',
'Maximum model space distance between geometric entities at asserted c
onnectivities');
#193=(
GEOMETRIC_REPRESENTATION_CONTEXT(3)
GLOBAL_UNCERTAINTY_ASSIGNED_CONTEXT((#191))
GLOBAL_UNIT_ASSIGNED_CONTEXT((#195,#197,#198))
REPRESENTATION_CONTEXT('','3D')
);
#194=(
GEOMETRIC_REPRESENTATION_CONTEXT(3)
GLOBAL_UNCERTAINTY_ASSIGNED_CONTEXT((#192))
GLOBAL_UNIT_ASSIGNED_CONTEXT((#195,#197,#198))
REPRESENTATION_CONTEXT('','3D')
);
#195=(
LENGTH_UNIT()
NAMED_UNIT(*)
SI_UNIT(.MILLI.,.METRE.)
);
#196=(
LENGTH_UNIT()
NAMED_UNIT(*)
SI_UNIT(.CENTI.,.METRE.)
);
#197=(
NAMED_UNIT(*)
PLANE_ANGLE_UNIT()
SI_UNIT($,.RADIAN.)
);
#198=(
NAMED_UNIT(*)
SI_UNIT($,.STERADIAN.)
SOLID_ANGLE_UNIT()
);
#199=SHAPE_DEFINITION_REPRESENTATION(#200,#201);
#200=PRODUCT_DEFINITION_SHAPE('',$,#203);
#201=SHAPE_REPRESENTATION('',(#127),#193);
#202=PRODUCT_DEFINITION_CONTEXT('part definition',#207,'design');
#203=PRODUCT_DEFINITION('41655','41655',#204,#202);
#204=PRODUCT_DEFINITION_FORMATION('',$,#209);
#205=PRODUCT_RELATED_PRODUCT_CATEGORY('41655','41655',(#209));
#206=APPLICATION_PROTOCOL_DEFINITION('international standard',
'automotive_design',2009,#207);
#207=APPLICATION_CONTEXT(
'Core Data for Automotive Mechanical Design Process');
#208=PRODUCT_CONTEXT('part definition',#207,'mechanical');
#209=PRODUCT('41655','41655',$,(#208));
#210=PRESENTATION_STYLE_ASSIGNMENT((#211));
#211=SURFACE_STYLE_USAGE(.BOTH.,#214);
#212=SURFACE_STYLE_RENDERING_WITH_PROPERTIES($,#218,(#213));
#213=SURFACE_STYLE_TRANSPARENT(0.);
#214=SURFACE_SIDE_STYLE('',(#215,#212));
#215=SURFACE_STYLE_FILL_AREA(#216);
#216=FILL_AREA_STYLE('',(#217));
#217=FILL_AREA_STYLE_COLOUR('',#218);
#218=COLOUR_RGB('',0.956862745098039,0.956862745098039,0.956862745098039);
ENDSEC;
END-ISO-10303-21;
