ISO-10303-21;
HEADER;
/* Generated by software containing ST-Developer
 * from STEP Tools, Inc. (www.steptools.com) 
 */

FILE_DESCRIPTION(
/* description */ (''),
/* implementation_level */ '2;1');

FILE_NAME(
/* name */ 
'C:\\Users\\O.Boryczka\\Desktop\\Korrigierte Zeichnungen\\Ankerplatten
\\Ankerplatten V2A viereckig\\IPT_Daten\\41698.ipt.step',
/* time_stamp */ '2022-07-18T12:53:02+02:00',
/* author */ ('Nutzer'),
/* organization */ (''),
/* preprocessor_version */ 'ST-DEVELOPER v18.1',
/* originating_system */ 'Autodesk Inventor 2022',
/* authorisation */ '');

FILE_SCHEMA (('AUTOMOTIVE_DESIGN { 1 0 10303 214 3 1 1 }'));
ENDSEC;

DATA;
#10=MECHANICAL_DESIGN_GEOMETRIC_PRESENTATION_REPRESENTATION('',(#13),#502);
#11=SHAPE_REPRESENTATION_RELATIONSHIP('SRR','None',#509,#12);
#12=ADVANCED_BREP_SHAPE_REPRESENTATION('',(#14),#501);
#13=STYLED_ITEM('',(#518),#14);
#14=MANIFOLD_SOLID_BREP('Volumenk\X\F6rper1',#301);
#15=CYLINDRICAL_SURFACE('',#333,7.5);
#16=CYLINDRICAL_SURFACE('',#339,7.5);
#17=FACE_BOUND('',#50,.T.);
#18=FACE_BOUND('',#51,.T.);
#19=FACE_BOUND('',#52,.T.);
#20=FACE_BOUND('',#62,.T.);
#21=FACE_BOUND('',#63,.T.);
#22=FACE_BOUND('',#64,.T.);
#23=CIRCLE('',#331,7.5);
#24=CIRCLE('',#332,7.5);
#25=CIRCLE('',#334,7.5);
#26=CIRCLE('',#340,7.5);
#27=FACE_OUTER_BOUND('',#43,.T.);
#28=FACE_OUTER_BOUND('',#44,.T.);
#29=FACE_OUTER_BOUND('',#45,.T.);
#30=FACE_OUTER_BOUND('',#46,.T.);
#31=FACE_OUTER_BOUND('',#47,.T.);
#32=FACE_OUTER_BOUND('',#48,.T.);
#33=FACE_OUTER_BOUND('',#49,.T.);
#34=FACE_OUTER_BOUND('',#53,.T.);
#35=FACE_OUTER_BOUND('',#54,.T.);
#36=FACE_OUTER_BOUND('',#55,.T.);
#37=FACE_OUTER_BOUND('',#56,.T.);
#38=FACE_OUTER_BOUND('',#57,.T.);
#39=FACE_OUTER_BOUND('',#58,.T.);
#40=FACE_OUTER_BOUND('',#59,.T.);
#41=FACE_OUTER_BOUND('',#60,.T.);
#42=FACE_OUTER_BOUND('',#61,.T.);
#43=EDGE_LOOP('',(#195,#196,#197,#198));
#44=EDGE_LOOP('',(#199,#200,#201,#202));
#45=EDGE_LOOP('',(#203,#204,#205,#206));
#46=EDGE_LOOP('',(#207,#208,#209,#210));
#47=EDGE_LOOP('',(#211,#212,#213,#214));
#48=EDGE_LOOP('',(#215,#216,#217,#218));
#49=EDGE_LOOP('',(#219,#220,#221,#222));
#50=EDGE_LOOP('',(#223));
#51=EDGE_LOOP('',(#224,#225,#226,#227));
#52=EDGE_LOOP('',(#228));
#53=EDGE_LOOP('',(#229,#230,#231,#232));
#54=EDGE_LOOP('',(#233,#234,#235,#236));
#55=EDGE_LOOP('',(#237,#238,#239,#240));
#56=EDGE_LOOP('',(#241,#242,#243,#244));
#57=EDGE_LOOP('',(#245,#246,#247,#248));
#58=EDGE_LOOP('',(#249,#250,#251,#252));
#59=EDGE_LOOP('',(#253,#254,#255,#256));
#60=EDGE_LOOP('',(#257,#258,#259,#260));
#61=EDGE_LOOP('',(#261,#262,#263,#264));
#62=EDGE_LOOP('',(#265));
#63=EDGE_LOOP('',(#266,#267,#268,#269));
#64=EDGE_LOOP('',(#270));
#65=LINE('',#424,#99);
#66=LINE('',#426,#100);
#67=LINE('',#428,#101);
#68=LINE('',#429,#102);
#69=LINE('',#432,#103);
#70=LINE('',#434,#104);
#71=LINE('',#435,#105);
#72=LINE('',#438,#106);
#73=LINE('',#440,#107);
#74=LINE('',#441,#108);
#75=LINE('',#443,#109);
#76=LINE('',#444,#110);
#77=LINE('',#447,#111);
#78=LINE('',#449,#112);
#79=LINE('',#450,#113);
#80=LINE('',#453,#114);
#81=LINE('',#454,#115);
#82=LINE('',#460,#116);
#83=LINE('',#462,#117);
#84=LINE('',#464,#118);
#85=LINE('',#465,#119);
#86=LINE('',#470,#120);
#87=LINE('',#475,#121);
#88=LINE('',#476,#122);
#89=LINE('',#477,#123);
#90=LINE('',#480,#124);
#91=LINE('',#481,#125);
#92=LINE('',#484,#126);
#93=LINE('',#485,#127);
#94=LINE('',#487,#128);
#95=LINE('',#490,#129);
#96=LINE('',#494,#130);
#97=LINE('',#495,#131);
#98=LINE('',#497,#132);
#99=VECTOR('',#348,10.);
#100=VECTOR('',#349,10.);
#101=VECTOR('',#350,10.);
#102=VECTOR('',#351,10.);
#103=VECTOR('',#354,10.);
#104=VECTOR('',#355,10.);
#105=VECTOR('',#356,10.);
#106=VECTOR('',#359,10.);
#107=VECTOR('',#360,10.);
#108=VECTOR('',#361,10.);
#109=VECTOR('',#364,10.);
#110=VECTOR('',#365,10.);
#111=VECTOR('',#368,10.);
#112=VECTOR('',#369,10.);
#113=VECTOR('',#370,10.);
#114=VECTOR('',#373,10.);
#115=VECTOR('',#374,10.);
#116=VECTOR('',#379,10.);
#117=VECTOR('',#380,10.);
#118=VECTOR('',#381,10.);
#119=VECTOR('',#382,10.);
#120=VECTOR('',#387,7.5);
#121=VECTOR('',#392,10.);
#122=VECTOR('',#393,10.);
#123=VECTOR('',#394,10.);
#124=VECTOR('',#397,10.);
#125=VECTOR('',#398,10.);
#126=VECTOR('',#401,10.);
#127=VECTOR('',#402,10.);
#128=VECTOR('',#405,10.);
#129=VECTOR('',#408,7.5);
#130=VECTOR('',#413,10.);
#131=VECTOR('',#414,10.);
#132=VECTOR('',#417,10.);
#133=VERTEX_POINT('',#422);
#134=VERTEX_POINT('',#423);
#135=VERTEX_POINT('',#425);
#136=VERTEX_POINT('',#427);
#137=VERTEX_POINT('',#431);
#138=VERTEX_POINT('',#433);
#139=VERTEX_POINT('',#437);
#140=VERTEX_POINT('',#439);
#141=VERTEX_POINT('',#446);
#142=VERTEX_POINT('',#448);
#143=VERTEX_POINT('',#452);
#144=VERTEX_POINT('',#456);
#145=VERTEX_POINT('',#458);
#146=VERTEX_POINT('',#459);
#147=VERTEX_POINT('',#461);
#148=VERTEX_POINT('',#463);
#149=VERTEX_POINT('',#466);
#150=VERTEX_POINT('',#469);
#151=VERTEX_POINT('',#473);
#152=VERTEX_POINT('',#474);
#153=VERTEX_POINT('',#479);
#154=VERTEX_POINT('',#483);
#155=VERTEX_POINT('',#489);
#156=VERTEX_POINT('',#493);
#157=EDGE_CURVE('',#133,#134,#65,.T.);
#158=EDGE_CURVE('',#134,#135,#66,.T.);
#159=EDGE_CURVE('',#135,#136,#67,.T.);
#160=EDGE_CURVE('',#133,#136,#68,.T.);
#161=EDGE_CURVE('',#134,#137,#69,.T.);
#162=EDGE_CURVE('',#137,#138,#70,.T.);
#163=EDGE_CURVE('',#138,#135,#71,.T.);
#164=EDGE_CURVE('',#137,#139,#72,.T.);
#165=EDGE_CURVE('',#139,#140,#73,.T.);
#166=EDGE_CURVE('',#140,#138,#74,.T.);
#167=EDGE_CURVE('',#136,#140,#75,.T.);
#168=EDGE_CURVE('',#139,#133,#76,.T.);
#169=EDGE_CURVE('',#141,#136,#77,.T.);
#170=EDGE_CURVE('',#141,#142,#78,.T.);
#171=EDGE_CURVE('',#142,#140,#79,.T.);
#172=EDGE_CURVE('',#143,#135,#80,.T.);
#173=EDGE_CURVE('',#143,#141,#81,.T.);
#174=EDGE_CURVE('',#144,#144,#23,.T.);
#175=EDGE_CURVE('',#145,#146,#82,.T.);
#176=EDGE_CURVE('',#146,#147,#83,.T.);
#177=EDGE_CURVE('',#147,#148,#84,.T.);
#178=EDGE_CURVE('',#148,#145,#85,.T.);
#179=EDGE_CURVE('',#149,#149,#24,.T.);
#180=EDGE_CURVE('',#144,#150,#86,.T.);
#181=EDGE_CURVE('',#150,#150,#25,.T.);
#182=EDGE_CURVE('',#151,#152,#87,.T.);
#183=EDGE_CURVE('',#152,#145,#88,.T.);
#184=EDGE_CURVE('',#151,#148,#89,.T.);
#185=EDGE_CURVE('',#153,#151,#90,.T.);
#186=EDGE_CURVE('',#153,#147,#91,.T.);
#187=EDGE_CURVE('',#154,#153,#92,.T.);
#188=EDGE_CURVE('',#154,#146,#93,.T.);
#189=EDGE_CURVE('',#152,#154,#94,.T.);
#190=EDGE_CURVE('',#149,#155,#95,.T.);
#191=EDGE_CURVE('',#155,#155,#26,.T.);
#192=EDGE_CURVE('',#156,#138,#96,.T.);
#193=EDGE_CURVE('',#156,#143,#97,.T.);
#194=EDGE_CURVE('',#142,#156,#98,.T.);
#195=ORIENTED_EDGE('',*,*,#157,.T.);
#196=ORIENTED_EDGE('',*,*,#158,.T.);
#197=ORIENTED_EDGE('',*,*,#159,.T.);
#198=ORIENTED_EDGE('',*,*,#160,.F.);
#199=ORIENTED_EDGE('',*,*,#161,.T.);
#200=ORIENTED_EDGE('',*,*,#162,.T.);
#201=ORIENTED_EDGE('',*,*,#163,.T.);
#202=ORIENTED_EDGE('',*,*,#158,.F.);
#203=ORIENTED_EDGE('',*,*,#164,.T.);
#204=ORIENTED_EDGE('',*,*,#165,.T.);
#205=ORIENTED_EDGE('',*,*,#166,.T.);
#206=ORIENTED_EDGE('',*,*,#162,.F.);
#207=ORIENTED_EDGE('',*,*,#167,.T.);
#208=ORIENTED_EDGE('',*,*,#165,.F.);
#209=ORIENTED_EDGE('',*,*,#168,.T.);
#210=ORIENTED_EDGE('',*,*,#160,.T.);
#211=ORIENTED_EDGE('',*,*,#167,.F.);
#212=ORIENTED_EDGE('',*,*,#169,.F.);
#213=ORIENTED_EDGE('',*,*,#170,.T.);
#214=ORIENTED_EDGE('',*,*,#171,.T.);
#215=ORIENTED_EDGE('',*,*,#159,.F.);
#216=ORIENTED_EDGE('',*,*,#172,.F.);
#217=ORIENTED_EDGE('',*,*,#173,.T.);
#218=ORIENTED_EDGE('',*,*,#169,.T.);
#219=ORIENTED_EDGE('',*,*,#157,.F.);
#220=ORIENTED_EDGE('',*,*,#168,.F.);
#221=ORIENTED_EDGE('',*,*,#164,.F.);
#222=ORIENTED_EDGE('',*,*,#161,.F.);
#223=ORIENTED_EDGE('',*,*,#174,.T.);
#224=ORIENTED_EDGE('',*,*,#175,.T.);
#225=ORIENTED_EDGE('',*,*,#176,.T.);
#226=ORIENTED_EDGE('',*,*,#177,.T.);
#227=ORIENTED_EDGE('',*,*,#178,.T.);
#228=ORIENTED_EDGE('',*,*,#179,.T.);
#229=ORIENTED_EDGE('',*,*,#174,.F.);
#230=ORIENTED_EDGE('',*,*,#180,.T.);
#231=ORIENTED_EDGE('',*,*,#181,.T.);
#232=ORIENTED_EDGE('',*,*,#180,.F.);
#233=ORIENTED_EDGE('',*,*,#182,.T.);
#234=ORIENTED_EDGE('',*,*,#183,.T.);
#235=ORIENTED_EDGE('',*,*,#178,.F.);
#236=ORIENTED_EDGE('',*,*,#184,.F.);
#237=ORIENTED_EDGE('',*,*,#185,.T.);
#238=ORIENTED_EDGE('',*,*,#184,.T.);
#239=ORIENTED_EDGE('',*,*,#177,.F.);
#240=ORIENTED_EDGE('',*,*,#186,.F.);
#241=ORIENTED_EDGE('',*,*,#187,.T.);
#242=ORIENTED_EDGE('',*,*,#186,.T.);
#243=ORIENTED_EDGE('',*,*,#176,.F.);
#244=ORIENTED_EDGE('',*,*,#188,.F.);
#245=ORIENTED_EDGE('',*,*,#189,.T.);
#246=ORIENTED_EDGE('',*,*,#188,.T.);
#247=ORIENTED_EDGE('',*,*,#175,.F.);
#248=ORIENTED_EDGE('',*,*,#183,.F.);
#249=ORIENTED_EDGE('',*,*,#179,.F.);
#250=ORIENTED_EDGE('',*,*,#190,.T.);
#251=ORIENTED_EDGE('',*,*,#191,.T.);
#252=ORIENTED_EDGE('',*,*,#190,.F.);
#253=ORIENTED_EDGE('',*,*,#163,.F.);
#254=ORIENTED_EDGE('',*,*,#192,.F.);
#255=ORIENTED_EDGE('',*,*,#193,.T.);
#256=ORIENTED_EDGE('',*,*,#172,.T.);
#257=ORIENTED_EDGE('',*,*,#166,.F.);
#258=ORIENTED_EDGE('',*,*,#171,.F.);
#259=ORIENTED_EDGE('',*,*,#194,.T.);
#260=ORIENTED_EDGE('',*,*,#192,.T.);
#261=ORIENTED_EDGE('',*,*,#173,.F.);
#262=ORIENTED_EDGE('',*,*,#193,.F.);
#263=ORIENTED_EDGE('',*,*,#194,.F.);
#264=ORIENTED_EDGE('',*,*,#170,.F.);
#265=ORIENTED_EDGE('',*,*,#191,.F.);
#266=ORIENTED_EDGE('',*,*,#189,.F.);
#267=ORIENTED_EDGE('',*,*,#182,.F.);
#268=ORIENTED_EDGE('',*,*,#185,.F.);
#269=ORIENTED_EDGE('',*,*,#187,.F.);
#270=ORIENTED_EDGE('',*,*,#181,.F.);
#271=PLANE('',#324);
#272=PLANE('',#325);
#273=PLANE('',#326);
#274=PLANE('',#327);
#275=PLANE('',#328);
#276=PLANE('',#329);
#277=PLANE('',#330);
#278=PLANE('',#335);
#279=PLANE('',#336);
#280=PLANE('',#337);
#281=PLANE('',#338);
#282=PLANE('',#341);
#283=PLANE('',#342);
#284=PLANE('',#343);
#285=ADVANCED_FACE('',(#27),#271,.T.);
#286=ADVANCED_FACE('',(#28),#272,.T.);
#287=ADVANCED_FACE('',(#29),#273,.T.);
#288=ADVANCED_FACE('',(#30),#274,.T.);
#289=ADVANCED_FACE('',(#31),#275,.T.);
#290=ADVANCED_FACE('',(#32),#276,.T.);
#291=ADVANCED_FACE('',(#33,#17,#18,#19),#277,.T.);
#292=ADVANCED_FACE('',(#34),#15,.F.);
#293=ADVANCED_FACE('',(#35),#278,.T.);
#294=ADVANCED_FACE('',(#36),#279,.T.);
#295=ADVANCED_FACE('',(#37),#280,.T.);
#296=ADVANCED_FACE('',(#38),#281,.T.);
#297=ADVANCED_FACE('',(#39),#16,.F.);
#298=ADVANCED_FACE('',(#40),#282,.T.);
#299=ADVANCED_FACE('',(#41),#283,.T.);
#300=ADVANCED_FACE('',(#42,#20,#21,#22),#284,.F.);
#301=CLOSED_SHELL('',(#285,#286,#287,#288,#289,#290,#291,#292,#293,#294,
#295,#296,#297,#298,#299,#300));
#302=DERIVED_UNIT_ELEMENT(#305,1.);
#303=DERIVED_UNIT_ELEMENT(#504,-3.);
#304=DIMENSIONAL_EXPONENTS(1.,0.,0.,0.,0.,0.,0.);
#305=(
CONVERSION_BASED_UNIT('gram',#307)
MASS_UNIT()
NAMED_UNIT(#304)
);
#306=(
MASS_UNIT()
NAMED_UNIT(*)
SI_UNIT(.KILO.,.GRAM.)
);
#307=MASS_MEASURE_WITH_UNIT(MASS_MEASURE(0.001),#306);
#308=DERIVED_UNIT((#302,#303));
#309=MEASURE_REPRESENTATION_ITEM('density measure',
POSITIVE_RATIO_MEASURE(8.),#308);
#310=PROPERTY_DEFINITION_REPRESENTATION(#315,#312);
#311=PROPERTY_DEFINITION_REPRESENTATION(#316,#313);
#312=REPRESENTATION('material name',(#314),#501);
#313=REPRESENTATION('density',(#309),#501);
#314=DESCRIPTIVE_REPRESENTATION_ITEM('Edelstahl AISI 304',
'Edelstahl AISI 304');
#315=PROPERTY_DEFINITION('material property','material name',#511);
#316=PROPERTY_DEFINITION('material property','density of part',#511);
#317=DATE_TIME_ROLE('creation_date');
#318=APPLIED_DATE_AND_TIME_ASSIGNMENT(#319,#317,(#511));
#319=DATE_AND_TIME(#320,#321);
#320=CALENDAR_DATE(2021,21,4);
#321=LOCAL_TIME(0,0,0.,#322);
#322=COORDINATED_UNIVERSAL_TIME_OFFSET(0,0,.BEHIND.);
#323=AXIS2_PLACEMENT_3D('placement',#420,#344,#345);
#324=AXIS2_PLACEMENT_3D('',#421,#346,#347);
#325=AXIS2_PLACEMENT_3D('',#430,#352,#353);
#326=AXIS2_PLACEMENT_3D('',#436,#357,#358);
#327=AXIS2_PLACEMENT_3D('',#442,#362,#363);
#328=AXIS2_PLACEMENT_3D('',#445,#366,#367);
#329=AXIS2_PLACEMENT_3D('',#451,#371,#372);
#330=AXIS2_PLACEMENT_3D('',#455,#375,#376);
#331=AXIS2_PLACEMENT_3D('',#457,#377,#378);
#332=AXIS2_PLACEMENT_3D('',#467,#383,#384);
#333=AXIS2_PLACEMENT_3D('',#468,#385,#386);
#334=AXIS2_PLACEMENT_3D('',#471,#388,#389);
#335=AXIS2_PLACEMENT_3D('',#472,#390,#391);
#336=AXIS2_PLACEMENT_3D('',#478,#395,#396);
#337=AXIS2_PLACEMENT_3D('',#482,#399,#400);
#338=AXIS2_PLACEMENT_3D('',#486,#403,#404);
#339=AXIS2_PLACEMENT_3D('',#488,#406,#407);
#340=AXIS2_PLACEMENT_3D('',#491,#409,#410);
#341=AXIS2_PLACEMENT_3D('',#492,#411,#412);
#342=AXIS2_PLACEMENT_3D('',#496,#415,#416);
#343=AXIS2_PLACEMENT_3D('',#498,#418,#419);
#344=DIRECTION('axis',(0.,0.,1.));
#345=DIRECTION('refdir',(1.,0.,0.));
#346=DIRECTION('center_axis',(0.707106781186547,0.707106781186548,4.48597845338221E-17));
#347=DIRECTION('ref_axis',(6.34413156928661E-17,0.,-1.));
#348=DIRECTION('',(-6.34413156928661E-17,0.,1.));
#349=DIRECTION('',(0.577350269189625,-0.577350269189627,0.577350269189626));
#350=DIRECTION('',(6.34413156928661E-17,0.,-1.));
#351=DIRECTION('',(0.577350269189627,-0.577350269189626,-0.577350269189624));
#352=DIRECTION('center_axis',(2.16489014058873E-17,0.707106781186547,0.707106781186548));
#353=DIRECTION('ref_axis',(1.,0.,-3.06161699786838E-17));
#354=DIRECTION('',(-1.,0.,3.06161699786838E-17));
#355=DIRECTION('',(-0.577350269189625,-0.577350269189627,0.577350269189626));
#356=DIRECTION('',(1.,0.,-3.06161699786838E-17));
#357=DIRECTION('center_axis',(-0.707106781186549,0.707106781186546,8.97195690676444E-17));
#358=DIRECTION('ref_axis',(1.26882631385732E-16,0.,1.));
#359=DIRECTION('',(-1.26882631385732E-16,0.,-1.));
#360=DIRECTION('',(-0.577350269189629,-0.577350269189625,-0.577350269189623));
#361=DIRECTION('',(1.26882631385732E-16,0.,1.));
#362=DIRECTION('center_axis',(0.,0.707106781186546,-0.707106781186549));
#363=DIRECTION('ref_axis',(-1.,0.,0.));
#364=DIRECTION('',(-1.,0.,0.));
#365=DIRECTION('',(1.,0.,0.));
#366=DIRECTION('center_axis',(0.,0.,-1.));
#367=DIRECTION('ref_axis',(-1.,0.,0.));
#368=DIRECTION('',(0.,1.,0.));
#369=DIRECTION('',(-1.,0.,0.));
#370=DIRECTION('',(0.,1.,0.));
#371=DIRECTION('center_axis',(1.,0.,6.34413156928661E-17));
#372=DIRECTION('ref_axis',(6.34413156928661E-17,0.,-1.));
#373=DIRECTION('',(0.,1.,0.));
#374=DIRECTION('',(6.34413156928661E-17,0.,-1.));
#375=DIRECTION('center_axis',(0.,1.,0.));
#376=DIRECTION('ref_axis',(0.,0.,1.));
#377=DIRECTION('center_axis',(0.,-1.,0.));
#378=DIRECTION('ref_axis',(1.,0.,0.));
#379=DIRECTION('',(-1.,0.,0.));
#380=DIRECTION('',(0.,0.,-1.));
#381=DIRECTION('',(1.,0.,-4.44089209850063E-16));
#382=DIRECTION('',(0.,0.,1.));
#383=DIRECTION('center_axis',(0.,-1.,0.));
#384=DIRECTION('ref_axis',(1.,0.,0.));
#385=DIRECTION('center_axis',(0.,1.,0.));
#386=DIRECTION('ref_axis',(1.,0.,0.));
#387=DIRECTION('',(0.,-1.,0.));
#388=DIRECTION('center_axis',(0.,-1.,0.));
#389=DIRECTION('ref_axis',(1.,0.,0.));
#390=DIRECTION('center_axis',(-1.,0.,0.));
#391=DIRECTION('ref_axis',(0.,0.,1.));
#392=DIRECTION('',(0.,0.,1.));
#393=DIRECTION('',(0.,1.,0.));
#394=DIRECTION('',(0.,1.,0.));
#395=DIRECTION('center_axis',(4.44089209850063E-16,0.,1.));
#396=DIRECTION('ref_axis',(1.,0.,-4.44089209850063E-16));
#397=DIRECTION('',(1.,0.,-4.44089209850063E-16));
#398=DIRECTION('',(0.,1.,0.));
#399=DIRECTION('center_axis',(1.,0.,0.));
#400=DIRECTION('ref_axis',(0.,0.,-1.));
#401=DIRECTION('',(0.,0.,-1.));
#402=DIRECTION('',(0.,1.,0.));
#403=DIRECTION('center_axis',(0.,0.,-1.));
#404=DIRECTION('ref_axis',(-1.,0.,0.));
#405=DIRECTION('',(-1.,0.,0.));
#406=DIRECTION('center_axis',(0.,1.,0.));
#407=DIRECTION('ref_axis',(1.,0.,0.));
#408=DIRECTION('',(0.,-1.,0.));
#409=DIRECTION('center_axis',(0.,-1.,0.));
#410=DIRECTION('ref_axis',(1.,0.,0.));
#411=DIRECTION('center_axis',(3.06161699786838E-17,0.,1.));
#412=DIRECTION('ref_axis',(1.,0.,-3.06161699786838E-17));
#413=DIRECTION('',(0.,1.,0.));
#414=DIRECTION('',(1.,0.,-3.06161699786838E-17));
#415=DIRECTION('center_axis',(-1.,0.,1.26882631385732E-16));
#416=DIRECTION('ref_axis',(1.26882631385732E-16,0.,1.));
#417=DIRECTION('',(1.26882631385732E-16,0.,1.));
#418=DIRECTION('center_axis',(0.,1.,0.));
#419=DIRECTION('ref_axis',(0.,0.,1.));
#420=CARTESIAN_POINT('',(0.,0.,0.));
#421=CARTESIAN_POINT('Origin',(-0.499999999999998,7.5,-35.));
#422=CARTESIAN_POINT('',(-0.999999999999992,8.,-139.));
#423=CARTESIAN_POINT('',(-0.999999999999996,8.,-0.999999999999998));
#424=CARTESIAN_POINT('',(-0.999999999999999,8.,-35.));
#425=CARTESIAN_POINT('',(0.,7.,0.));
#426=CARTESIAN_POINT('',(-0.999999999999996,8.,-0.999999999999998));
#427=CARTESIAN_POINT('',(8.88178419700125E-15,7.,-140.));
#428=CARTESIAN_POINT('',(2.22044604925031E-15,7.,-35.));
#429=CARTESIAN_POINT('',(-0.999999999999992,8.,-139.));
#430=CARTESIAN_POINT('Origin',(-60.,7.5,-0.499999999999997));
#431=CARTESIAN_POINT('',(-79.,8.,-0.999999999999996));
#432=CARTESIAN_POINT('',(-60.,8.,-0.999999999999996));
#433=CARTESIAN_POINT('',(-80.,7.,2.4492935982947E-15));
#434=CARTESIAN_POINT('',(-79.,8.,-0.999999999999996));
#435=CARTESIAN_POINT('',(-60.,7.,1.94289029309402E-15));
#436=CARTESIAN_POINT('Origin',(-79.5,7.5,-105.));
#437=CARTESIAN_POINT('',(-79.,8.,-139.));
#438=CARTESIAN_POINT('',(-79.,8.,-105.));
#439=CARTESIAN_POINT('',(-80.,7.,-140.));
#440=CARTESIAN_POINT('',(-79.,8.,-139.));
#441=CARTESIAN_POINT('',(-80.,7.,-105.));
#442=CARTESIAN_POINT('Origin',(-20.,7.5,-139.5));
#443=CARTESIAN_POINT('',(-20.,7.,-140.));
#444=CARTESIAN_POINT('',(-20.,8.,-139.));
#445=CARTESIAN_POINT('Origin',(8.88178419700125E-15,0.,-140.));
#446=CARTESIAN_POINT('',(8.88178419700125E-15,0.,-140.));
#447=CARTESIAN_POINT('',(8.88178419700125E-15,0.,-140.));
#448=CARTESIAN_POINT('',(-80.,0.,-140.));
#449=CARTESIAN_POINT('',(8.88178419700125E-15,0.,-140.));
#450=CARTESIAN_POINT('',(-80.,0.,-140.));
#451=CARTESIAN_POINT('Origin',(0.,0.,0.));
#452=CARTESIAN_POINT('',(0.,0.,0.));
#453=CARTESIAN_POINT('',(0.,0.,0.));
#454=CARTESIAN_POINT('',(0.,0.,0.));
#455=CARTESIAN_POINT('Origin',(-40.,8.,-70.));
#456=CARTESIAN_POINT('',(-47.5,8.,-120.));
#457=CARTESIAN_POINT('Origin',(-40.,8.,-120.));
#458=CARTESIAN_POINT('',(-20.,8.,-65.));
#459=CARTESIAN_POINT('',(-60.,8.,-65.));
#460=CARTESIAN_POINT('',(-20.,8.,-65.));
#461=CARTESIAN_POINT('',(-60.,8.,-75.));
#462=CARTESIAN_POINT('',(-60.,8.,-65.));
#463=CARTESIAN_POINT('',(-20.,8.,-75.));
#464=CARTESIAN_POINT('',(-60.,8.,-75.));
#465=CARTESIAN_POINT('',(-20.,8.,-75.));
#466=CARTESIAN_POINT('',(-47.5,8.,-20.));
#467=CARTESIAN_POINT('Origin',(-40.,8.,-20.));
#468=CARTESIAN_POINT('Origin',(-40.,0.,-120.));
#469=CARTESIAN_POINT('',(-47.5,0.,-120.));
#470=CARTESIAN_POINT('',(-47.5,0.,-120.));
#471=CARTESIAN_POINT('Origin',(-40.,0.,-120.));
#472=CARTESIAN_POINT('Origin',(-20.,0.,-75.));
#473=CARTESIAN_POINT('',(-20.,0.,-75.));
#474=CARTESIAN_POINT('',(-20.,0.,-65.));
#475=CARTESIAN_POINT('',(-20.,0.,-75.));
#476=CARTESIAN_POINT('',(-20.,0.,-65.));
#477=CARTESIAN_POINT('',(-20.,0.,-75.));
#478=CARTESIAN_POINT('Origin',(-60.,0.,-75.));
#479=CARTESIAN_POINT('',(-60.,0.,-75.));
#480=CARTESIAN_POINT('',(-60.,0.,-75.));
#481=CARTESIAN_POINT('',(-60.,0.,-75.));
#482=CARTESIAN_POINT('Origin',(-60.,0.,-65.));
#483=CARTESIAN_POINT('',(-60.,0.,-65.));
#484=CARTESIAN_POINT('',(-60.,0.,-65.));
#485=CARTESIAN_POINT('',(-60.,0.,-65.));
#486=CARTESIAN_POINT('Origin',(-20.,0.,-65.));
#487=CARTESIAN_POINT('',(-20.,0.,-65.));
#488=CARTESIAN_POINT('Origin',(-40.,0.,-20.));
#489=CARTESIAN_POINT('',(-47.5,0.,-20.));
#490=CARTESIAN_POINT('',(-47.5,0.,-20.));
#491=CARTESIAN_POINT('Origin',(-40.,0.,-20.));
#492=CARTESIAN_POINT('Origin',(-80.,0.,2.4492935982947E-15));
#493=CARTESIAN_POINT('',(-80.,0.,2.4492935982947E-15));
#494=CARTESIAN_POINT('',(-80.,0.,2.4492935982947E-15));
#495=CARTESIAN_POINT('',(-80.,0.,2.4492935982947E-15));
#496=CARTESIAN_POINT('Origin',(-80.,0.,-140.));
#497=CARTESIAN_POINT('',(-80.,0.,-140.));
#498=CARTESIAN_POINT('Origin',(-40.,0.,-70.));
#499=UNCERTAINTY_MEASURE_WITH_UNIT(LENGTH_MEASURE(0.01),#503,
'DISTANCE_ACCURACY_VALUE',
'Maximum model space distance between geometric entities at asserted c
onnectivities');
#500=UNCERTAINTY_MEASURE_WITH_UNIT(LENGTH_MEASURE(0.01),#503,
'DISTANCE_ACCURACY_VALUE',
'Maximum model space distance between geometric entities at asserted c
onnectivities');
#501=(
GEOMETRIC_REPRESENTATION_CONTEXT(3)
GLOBAL_UNCERTAINTY_ASSIGNED_CONTEXT((#499))
GLOBAL_UNIT_ASSIGNED_CONTEXT((#503,#505,#506))
REPRESENTATION_CONTEXT('','3D')
);
#502=(
GEOMETRIC_REPRESENTATION_CONTEXT(3)
GLOBAL_UNCERTAINTY_ASSIGNED_CONTEXT((#500))
GLOBAL_UNIT_ASSIGNED_CONTEXT((#503,#505,#506))
REPRESENTATION_CONTEXT('','3D')
);
#503=(
LENGTH_UNIT()
NAMED_UNIT(*)
SI_UNIT(.MILLI.,.METRE.)
);
#504=(
LENGTH_UNIT()
NAMED_UNIT(*)
SI_UNIT(.CENTI.,.METRE.)
);
#505=(
NAMED_UNIT(*)
PLANE_ANGLE_UNIT()
SI_UNIT($,.RADIAN.)
);
#506=(
NAMED_UNIT(*)
SI_UNIT($,.STERADIAN.)
SOLID_ANGLE_UNIT()
);
#507=SHAPE_DEFINITION_REPRESENTATION(#508,#509);
#508=PRODUCT_DEFINITION_SHAPE('',$,#511);
#509=SHAPE_REPRESENTATION('',(#323),#501);
#510=PRODUCT_DEFINITION_CONTEXT('part definition',#515,'design');
#511=PRODUCT_DEFINITION('41698','41698',#512,#510);
#512=PRODUCT_DEFINITION_FORMATION('',$,#517);
#513=PRODUCT_RELATED_PRODUCT_CATEGORY('41698','41698',(#517));
#514=APPLICATION_PROTOCOL_DEFINITION('international standard',
'automotive_design',2009,#515);
#515=APPLICATION_CONTEXT(
'Core Data for Automotive Mechanical Design Process');
#516=PRODUCT_CONTEXT('part definition',#515,'mechanical');
#517=PRODUCT('41698','41698',$,(#516));
#518=PRESENTATION_STYLE_ASSIGNMENT((#519));
#519=SURFACE_STYLE_USAGE(.BOTH.,#522);
#520=SURFACE_STYLE_RENDERING_WITH_PROPERTIES($,#526,(#521));
#521=SURFACE_STYLE_TRANSPARENT(0.);
#522=SURFACE_SIDE_STYLE('',(#523,#520));
#523=SURFACE_STYLE_FILL_AREA(#524);
#524=FILL_AREA_STYLE('',(#525));
#525=FILL_AREA_STYLE_COLOUR('',#526);
#526=COLOUR_RGB('',0.956862745098039,0.956862745098039,0.956862745098039);
ENDSEC;
END-ISO-10303-21;
