ISO-10303-21;
HEADER;
/* Generated by software containing ST-Developer
 * from STEP Tools, Inc. (www.steptools.com) 
 */

FILE_DESCRIPTION(
/* description */ (''),
/* implementation_level */ '2;1');

FILE_NAME(
/* name */ 
'C:\\Users\\O.Boryczka\\Desktop\\Korrigierte Zeichnungen\\Dinstanzst\X\FC
cke\\41707.ipt.step',
/* time_stamp */ '2022-07-18T12:53:41+02:00',
/* author */ ('Abt. Technik'),
/* organization */ (''),
/* preprocessor_version */ 'ST-DEVELOPER v18.1',
/* originating_system */ 'Autodesk Inventor 2022',
/* authorisation */ '');

FILE_SCHEMA (('AUTOMOTIVE_DESIGN { 1 0 10303 214 3 1 1 }'));
ENDSEC;

DATA;
#10=MECHANICAL_DESIGN_GEOMETRIC_PRESENTATION_REPRESENTATION('',(#13),#292);
#11=SHAPE_REPRESENTATION_RELATIONSHIP('SRR','None',#299,#12);
#12=ADVANCED_BREP_SHAPE_REPRESENTATION('',(#14),#291);
#13=STYLED_ITEM('',(#308),#14);
#14=MANIFOLD_SOLID_BREP('Volumenk\X\F6rper1',#119);
#15=B_SPLINE_CURVE_WITH_KNOTS('',3,(#206,#207,#208,#209,#210,#211),
 .UNSPECIFIED.,.F.,.F.,(4,2,4),(0.,0.323296578083459,0.517255548988018),
 .UNSPECIFIED.);
#16=B_SPLINE_CURVE_WITH_KNOTS('',3,(#212,#213,#214,#215,#216,#217,#218,
#219,#220,#221,#222,#223,#224,#225,#226,#227,#228,#229,#230,#231,#232,#233,
#234,#235,#236,#237,#238,#239,#240,#241,#242,#243),.UNSPECIFIED.,.F.,.F.,
(4,2,2,2,2,2,2,2,2,2,2,2,2,2,2,4),(0.517255548988018,0.646593156166918,
0.969700903228665,1.29280865029041,1.61591639146319,1.93902413263598,2.26232070976357,
2.58561728689117,2.90891386401877,3.23221044114637,3.55531818231915,3.87842592349193,
4.20153367055368,4.52464141761542,4.84793799569888,5.17123457378234),
 .UNSPECIFIED.);
#17=B_SPLINE_CURVE_WITH_KNOTS('',3,(#251,#252,#253,#254,#255,#256,#257,
#258,#259,#260,#261,#262,#263,#264,#265,#266,#267,#268,#269,#270,#271,#272,
#273,#274,#275,#276),.UNSPECIFIED.,.F.,.F.,(4,2,2,2,2,2,2,2,2,2,2,2,4),
(0.,0.381956636785477,0.763913273570954,1.14542074661317,1.52692821965538,
1.9084356926976,2.28994316573981,2.67189980252529,3.05385643931077,3.43581307609624,
3.81776971288172,4.19927718592393,4.58078465896615),.UNSPECIFIED.);
#18=B_SPLINE_CURVE_WITH_KNOTS('',3,(#277,#278,#279,#280,#281,#282,#283,
#284,#285,#286),.UNSPECIFIED.,.F.,.F.,(4,2,2,2,4),(4.58078465896615,4.96229213200836,
5.34379960505058,5.72575624183606,6.10771287862153),.UNSPECIFIED.);
#19=FACE_BOUND('',#38,.T.);
#20=FACE_BOUND('',#41,.T.);
#21=FACE_BOUND('',#43,.T.);
#22=PLANE('',#148);
#23=PLANE('',#152);
#24=CYLINDRICAL_SURFACE('',#146,5.25);
#25=CYLINDRICAL_SURFACE('',#150,8.50000154365086);
#26=CYLINDRICAL_SURFACE('',#153,24.15);
#27=CYLINDRICAL_SURFACE('',#154,10.);
#28=FACE_OUTER_BOUND('',#35,.T.);
#29=FACE_OUTER_BOUND('',#36,.T.);
#30=FACE_OUTER_BOUND('',#37,.T.);
#31=FACE_OUTER_BOUND('',#39,.T.);
#32=FACE_OUTER_BOUND('',#40,.T.);
#33=FACE_OUTER_BOUND('',#42,.T.);
#34=FACE_OUTER_BOUND('',#44,.T.);
#35=EDGE_LOOP('',(#83,#84,#85,#86,#87));
#36=EDGE_LOOP('',(#88,#89,#90,#91,#92));
#37=EDGE_LOOP('',(#93));
#38=EDGE_LOOP('',(#94));
#39=EDGE_LOOP('',(#95,#96,#97,#98,#99));
#40=EDGE_LOOP('',(#100));
#41=EDGE_LOOP('',(#101));
#42=EDGE_LOOP('',(#102,#103));
#43=EDGE_LOOP('',(#104,#105));
#44=EDGE_LOOP('',(#106,#107,#108,#109,#110));
#45=LINE('',#192,#49);
#46=LINE('',#198,#50);
#47=LINE('',#245,#51);
#48=LINE('',#288,#52);
#49=VECTOR('',#161,7.25);
#50=VECTOR('',#168,5.25);
#51=VECTOR('',#177,8.50000154365086);
#52=VECTOR('',#186,10.);
#53=CIRCLE('',#143,9.25);
#54=CIRCLE('',#144,5.25);
#55=CIRCLE('',#145,5.25);
#56=CIRCLE('',#147,5.25);
#57=CIRCLE('',#149,10.);
#58=CIRCLE('',#151,8.50000154365086);
#59=VERTEX_POINT('',#189);
#60=VERTEX_POINT('',#191);
#61=VERTEX_POINT('',#193);
#62=VERTEX_POINT('',#197);
#63=VERTEX_POINT('',#201);
#64=VERTEX_POINT('',#204);
#65=VERTEX_POINT('',#205);
#66=VERTEX_POINT('',#244);
#67=VERTEX_POINT('',#249);
#68=VERTEX_POINT('',#250);
#69=EDGE_CURVE('',#59,#59,#53,.T.);
#70=EDGE_CURVE('',#59,#60,#45,.T.);
#71=EDGE_CURVE('',#60,#61,#54,.T.);
#72=EDGE_CURVE('',#61,#60,#55,.T.);
#73=EDGE_CURVE('',#61,#62,#46,.T.);
#74=EDGE_CURVE('',#62,#62,#56,.T.);
#75=EDGE_CURVE('',#63,#63,#57,.T.);
#76=EDGE_CURVE('',#64,#65,#15,.T.);
#77=EDGE_CURVE('',#65,#64,#16,.T.);
#78=EDGE_CURVE('',#65,#66,#47,.T.);
#79=EDGE_CURVE('',#66,#66,#58,.T.);
#80=EDGE_CURVE('',#67,#68,#17,.T.);
#81=EDGE_CURVE('',#68,#67,#18,.T.);
#82=EDGE_CURVE('',#68,#63,#48,.T.);
#83=ORIENTED_EDGE('',*,*,#69,.T.);
#84=ORIENTED_EDGE('',*,*,#70,.T.);
#85=ORIENTED_EDGE('',*,*,#71,.T.);
#86=ORIENTED_EDGE('',*,*,#72,.T.);
#87=ORIENTED_EDGE('',*,*,#70,.F.);
#88=ORIENTED_EDGE('',*,*,#71,.F.);
#89=ORIENTED_EDGE('',*,*,#72,.F.);
#90=ORIENTED_EDGE('',*,*,#73,.T.);
#91=ORIENTED_EDGE('',*,*,#74,.T.);
#92=ORIENTED_EDGE('',*,*,#73,.F.);
#93=ORIENTED_EDGE('',*,*,#75,.F.);
#94=ORIENTED_EDGE('',*,*,#69,.F.);
#95=ORIENTED_EDGE('',*,*,#76,.F.);
#96=ORIENTED_EDGE('',*,*,#77,.F.);
#97=ORIENTED_EDGE('',*,*,#78,.T.);
#98=ORIENTED_EDGE('',*,*,#79,.T.);
#99=ORIENTED_EDGE('',*,*,#78,.F.);
#100=ORIENTED_EDGE('',*,*,#79,.F.);
#101=ORIENTED_EDGE('',*,*,#74,.F.);
#102=ORIENTED_EDGE('',*,*,#80,.F.);
#103=ORIENTED_EDGE('',*,*,#81,.F.);
#104=ORIENTED_EDGE('',*,*,#76,.T.);
#105=ORIENTED_EDGE('',*,*,#77,.T.);
#106=ORIENTED_EDGE('',*,*,#80,.T.);
#107=ORIENTED_EDGE('',*,*,#82,.T.);
#108=ORIENTED_EDGE('',*,*,#75,.T.);
#109=ORIENTED_EDGE('',*,*,#82,.F.);
#110=ORIENTED_EDGE('',*,*,#81,.T.);
#111=CONICAL_SURFACE('',#142,7.25,0.785398163397448);
#112=ADVANCED_FACE('',(#28),#111,.F.);
#113=ADVANCED_FACE('',(#29),#24,.F.);
#114=ADVANCED_FACE('',(#30,#19),#22,.F.);
#115=ADVANCED_FACE('',(#31),#25,.F.);
#116=ADVANCED_FACE('',(#32,#20),#23,.T.);
#117=ADVANCED_FACE('',(#33,#21),#26,.F.);
#118=ADVANCED_FACE('',(#34),#27,.T.);
#119=CLOSED_SHELL('',(#112,#113,#114,#115,#116,#117,#118));
#120=DERIVED_UNIT_ELEMENT(#123,1.);
#121=DERIVED_UNIT_ELEMENT(#294,-3.);
#122=DIMENSIONAL_EXPONENTS(1.,0.,0.,0.,0.,0.,0.);
#123=(
CONVERSION_BASED_UNIT('gram',#125)
MASS_UNIT()
NAMED_UNIT(#122)
);
#124=(
MASS_UNIT()
NAMED_UNIT(*)
SI_UNIT(.KILO.,.GRAM.)
);
#125=MASS_MEASURE_WITH_UNIT(MASS_MEASURE(0.001),#124);
#126=DERIVED_UNIT((#120,#121));
#127=MEASURE_REPRESENTATION_ITEM('density measure',
POSITIVE_RATIO_MEASURE(8.),#126);
#128=PROPERTY_DEFINITION_REPRESENTATION(#133,#130);
#129=PROPERTY_DEFINITION_REPRESENTATION(#134,#131);
#130=REPRESENTATION('material name',(#132),#291);
#131=REPRESENTATION('density',(#127),#291);
#132=DESCRIPTIVE_REPRESENTATION_ITEM('Edelstahl AISI 304',
'Edelstahl AISI 304');
#133=PROPERTY_DEFINITION('material property','material name',#301);
#134=PROPERTY_DEFINITION('material property','density of part',#301);
#135=DATE_TIME_ROLE('creation_date');
#136=APPLIED_DATE_AND_TIME_ASSIGNMENT(#137,#135,(#301));
#137=DATE_AND_TIME(#138,#139);
#138=CALENDAR_DATE(2021,2,12);
#139=LOCAL_TIME(0,0,0.,#140);
#140=COORDINATED_UNIVERSAL_TIME_OFFSET(0,0,.BEHIND.);
#141=AXIS2_PLACEMENT_3D('placement',#187,#155,#156);
#142=AXIS2_PLACEMENT_3D('',#188,#157,#158);
#143=AXIS2_PLACEMENT_3D('',#190,#159,#160);
#144=AXIS2_PLACEMENT_3D('',#194,#162,#163);
#145=AXIS2_PLACEMENT_3D('',#195,#164,#165);
#146=AXIS2_PLACEMENT_3D('',#196,#166,#167);
#147=AXIS2_PLACEMENT_3D('',#199,#169,#170);
#148=AXIS2_PLACEMENT_3D('',#200,#171,#172);
#149=AXIS2_PLACEMENT_3D('',#202,#173,#174);
#150=AXIS2_PLACEMENT_3D('',#203,#175,#176);
#151=AXIS2_PLACEMENT_3D('',#246,#178,#179);
#152=AXIS2_PLACEMENT_3D('',#247,#180,#181);
#153=AXIS2_PLACEMENT_3D('',#248,#182,#183);
#154=AXIS2_PLACEMENT_3D('',#287,#184,#185);
#155=DIRECTION('axis',(0.,0.,1.));
#156=DIRECTION('refdir',(1.,0.,0.));
#157=DIRECTION('center_axis',(0.,-1.,0.));
#158=DIRECTION('ref_axis',(-1.,0.,0.));
#159=DIRECTION('center_axis',(0.,-1.,0.));
#160=DIRECTION('ref_axis',(-1.,0.,0.));
#161=DIRECTION('',(-0.707106781186548,0.707106781186548,-8.65956056235493E-17));
#162=DIRECTION('center_axis',(0.,1.,0.));
#163=DIRECTION('ref_axis',(-1.,0.,0.));
#164=DIRECTION('center_axis',(0.,1.,0.));
#165=DIRECTION('ref_axis',(-1.,0.,0.));
#166=DIRECTION('center_axis',(0.,1.,0.));
#167=DIRECTION('ref_axis',(1.,0.,0.));
#168=DIRECTION('',(0.,1.,0.));
#169=DIRECTION('center_axis',(0.,1.,0.));
#170=DIRECTION('ref_axis',(1.,0.,0.));
#171=DIRECTION('center_axis',(0.,1.,0.));
#172=DIRECTION('ref_axis',(0.,0.,1.));
#173=DIRECTION('center_axis',(0.,1.,0.));
#174=DIRECTION('ref_axis',(-1.,0.,0.));
#175=DIRECTION('center_axis',(0.,-1.,0.));
#176=DIRECTION('ref_axis',(-0.590882676298971,0.,0.806757499407205));
#177=DIRECTION('',(0.,-1.,0.));
#178=DIRECTION('center_axis',(0.,-1.,0.));
#179=DIRECTION('ref_axis',(-0.590882676298971,0.,0.806757499407205));
#180=DIRECTION('center_axis',(0.,1.,0.));
#181=DIRECTION('ref_axis',(0.,0.,1.));
#182=DIRECTION('center_axis',(1.,0.,0.));
#183=DIRECTION('ref_axis',(0.,-1.,1.22464679914735E-16));
#184=DIRECTION('center_axis',(0.,1.,0.));
#185=DIRECTION('ref_axis',(-1.,0.,0.));
#186=DIRECTION('',(0.,-1.,0.));
#187=CARTESIAN_POINT('',(0.,0.,0.));
#188=CARTESIAN_POINT('Origin',(0.,2.,0.));
#189=CARTESIAN_POINT('',(9.25,0.,1.1327982892113E-15));
#190=CARTESIAN_POINT('Origin',(0.,0.,0.));
#191=CARTESIAN_POINT('',(5.25,4.,-6.42939569552361E-16));
#192=CARTESIAN_POINT('',(7.25,2.,8.87868929381831E-16));
#193=CARTESIAN_POINT('',(-5.25,4.,6.42939569552361E-16));
#194=CARTESIAN_POINT('Origin',(0.,4.,0.));
#195=CARTESIAN_POINT('Origin',(0.,4.,0.));
#196=CARTESIAN_POINT('Origin',(0.,0.,0.));
#197=CARTESIAN_POINT('',(-5.25,5.55,6.42939569552361E-16));
#198=CARTESIAN_POINT('',(-5.25,0.,6.42939569552361E-16));
#199=CARTESIAN_POINT('Origin',(0.,5.55,0.));
#200=CARTESIAN_POINT('Origin',(0.,0.,0.));
#201=CARTESIAN_POINT('',(10.,0.,-1.22464679914735E-15));
#202=CARTESIAN_POINT('Origin',(0.,0.,0.));
#203=CARTESIAN_POINT('Origin',(-4.96142329533147E-6,54.3,-1.54364941495899E-6));
#204=CARTESIAN_POINT('',(-4.96142329553528E-6,7.54530032236912,-8.50000308730028));
#205=CARTESIAN_POINT('',(5.02249869923328,6.99405053537514,-6.85744153396346));
#206=CARTESIAN_POINT('Ctrl Pts',(-4.96142329553528E-6,7.54530032236912,
-8.50000308730028));
#207=CARTESIAN_POINT('Ctrl Pts',(1.0776502988549,7.54530032236912,-8.50000308730028));
#208=CARTESIAN_POINT('Ctrl Pts',(2.2200782472166,7.46012434866544,-8.28273386333733));
#209=CARTESIAN_POINT('Ctrl Pts',(3.89285545655083,7.22094851578546,-7.58665057992883));
#210=CARTESIAN_POINT('Ctrl Pts',(4.48716074981937,7.11016485925431,-7.24953199547949));
#211=CARTESIAN_POINT('Ctrl Pts',(5.02249869923205,6.99405053537514,-6.85744153396437));
#212=CARTESIAN_POINT('Ctrl Pts',(5.02249869923205,6.99405053537514,-6.85744153396437));
#213=CARTESIAN_POINT('Ctrl Pts',(5.37947795668111,6.91662205274457,-6.59598395943954));
#214=CARTESIAN_POINT('Ctrl Pts',(5.71046318081358,6.83695908494556,-6.31035086327832));
#215=CARTESIAN_POINT('Ctrl Pts',(6.75970727166174,6.56734144872576,-5.261106777179));
#216=CARTESIAN_POINT('Ctrl Pts',(7.41248928315007,6.36453153226277,-4.31139868412815));
#217=CARTESIAN_POINT('Ctrl Pts',(8.282877426459,6.07907179666048,-2.21970364706781));
#218=CARTESIAN_POINT('Ctrl Pts',(8.49999658222757,6.00000006884271,-1.07702736718857));
#219=CARTESIAN_POINT('Ctrl Pts',(8.49999658222757,5.99999993115739,1.07702426025985));
#220=CARTESIAN_POINT('Ctrl Pts',(8.28287743355532,6.07907151024157,2.21970053097125));
#221=CARTESIAN_POINT('Ctrl Pts',(7.41248930206682,6.36453096748523,4.31139556311311));
#222=CARTESIAN_POINT('Ctrl Pts',(6.75970729493687,6.56734075403979,5.26110365982239));
#223=CARTESIAN_POINT('Ctrl Pts',(5.26066235232719,6.95254066884927,6.7601486092167));
#224=CARTESIAN_POINT('Ctrl Pts',(4.31112647836634,7.16114259285821,7.41259474621462));
#225=CARTESIAN_POINT('Ctrl Pts',(2.22007824596564,7.4601232224941,8.28273077727982));
#226=CARTESIAN_POINT('Ctrl Pts',(1.0776502956687,7.54529916145813,8.50000000000145));
#227=CARTESIAN_POINT('Ctrl Pts',(-1.07766021851529,7.54529916145813,8.50000000000145));
#228=CARTESIAN_POINT('Ctrl Pts',(-2.22008816881223,7.4601232224941,8.28273077727982));
#229=CARTESIAN_POINT('Ctrl Pts',(-4.31113640121293,7.16114259285821,7.41259474621463));
#230=CARTESIAN_POINT('Ctrl Pts',(-5.26067227517377,6.95254066884928,6.76014860921671));
#231=CARTESIAN_POINT('Ctrl Pts',(-6.75971721778346,6.56734075403979,5.26110365982239));
#232=CARTESIAN_POINT('Ctrl Pts',(-7.4124992249134,6.36453096748524,4.31139556311311));
#233=CARTESIAN_POINT('Ctrl Pts',(-8.28288735640191,6.07907151024157,2.21970053097126));
#234=CARTESIAN_POINT('Ctrl Pts',(-8.50000650507416,5.99999993115739,1.07702426025986));
#235=CARTESIAN_POINT('Ctrl Pts',(-8.50000650507416,6.00000006884271,-1.07702736718857));
#236=CARTESIAN_POINT('Ctrl Pts',(-8.2828873493056,6.07907179666048,-2.2197036470678));
#237=CARTESIAN_POINT('Ctrl Pts',(-7.41249920599666,6.36453153226277,-4.31139868412815));
#238=CARTESIAN_POINT('Ctrl Pts',(-6.75971719450833,6.56734144872576,-5.261106777179));
#239=CARTESIAN_POINT('Ctrl Pts',(-5.26067225548888,6.95254157191059,-6.76015170941382));
#240=CARTESIAN_POINT('Ctrl Pts',(-4.31113639074175,7.16114358961262,-7.41259783859154));
#241=CARTESIAN_POINT('Ctrl Pts',(-2.22008817006319,7.46012434866544,-8.28273386333733));
#242=CARTESIAN_POINT('Ctrl Pts',(-1.07766022170149,7.54530032236912,-8.50000308730028));
#243=CARTESIAN_POINT('Ctrl Pts',(-4.96142329498017E-6,7.54530032236912,
-8.50000308730028));
#244=CARTESIAN_POINT('',(5.02249869923451,5.55,-6.85744153396256));
#245=CARTESIAN_POINT('',(5.02249869923451,54.3,-6.85744153396256));
#246=CARTESIAN_POINT('Origin',(-4.96142329533147E-6,5.55,-1.54364941495899E-6));
#247=CARTESIAN_POINT('Origin',(3.88578058618805E-15,5.55,-4.49732898094579E-5));
#248=CARTESIAN_POINT('Origin',(0.,30.15,0.));
#249=CARTESIAN_POINT('',(0.,8.16767755672755,10.));
#250=CARTESIAN_POINT('',(10.,6.,-1.58376854612069E-15));
#251=CARTESIAN_POINT('Ctrl Pts',(0.,8.16767755672755,10.));
#252=CARTESIAN_POINT('Ctrl Pts',(-1.27318878928492,8.16767755672755,10.));
#253=CARTESIAN_POINT('Ctrl Pts',(-2.6189386488563,8.04534876597979,9.74240166325403));
#254=CARTESIAN_POINT('Ctrl Pts',(-5.07712807806519,7.62148595229785,8.71757008468972));
#255=CARTESIAN_POINT('Ctrl Pts',(-6.19117783051748,7.32782715242867,7.95095779321347));
#256=CARTESIAN_POINT('Ctrl Pts',(-7.94992308235989,6.78926763300145,6.19221254137106));
#257=CARTESIAN_POINT('Ctrl Pts',(-8.7173171001089,6.50701710272786,5.07777621222975));
#258=CARTESIAN_POINT('Ctrl Pts',(-9.74275100752484,6.11002876753649,2.61805937992822));
#259=CARTESIAN_POINT('Ctrl Pts',(-10.,6.,1.27169157680738));
#260=CARTESIAN_POINT('Ctrl Pts',(-10.,6.,-1.27169157680738));
#261=CARTESIAN_POINT('Ctrl Pts',(-9.74275100752484,6.11002876753649,-2.61805937992822));
#262=CARTESIAN_POINT('Ctrl Pts',(-8.7173171001089,6.50701710272786,-5.07777621222975));
#263=CARTESIAN_POINT('Ctrl Pts',(-7.94992308235989,6.78926763300145,-6.19221254137106));
#264=CARTESIAN_POINT('Ctrl Pts',(-6.19117783051748,7.32782715242867,-7.95095779321347));
#265=CARTESIAN_POINT('Ctrl Pts',(-5.07712807806519,7.62148595229785,-8.71757008468972));
#266=CARTESIAN_POINT('Ctrl Pts',(-2.6189386488563,8.04534876597979,-9.74240166325403));
#267=CARTESIAN_POINT('Ctrl Pts',(-1.27318878928492,8.16767755672754,-10.));
#268=CARTESIAN_POINT('Ctrl Pts',(1.27318878928492,8.16767755672754,-10.));
#269=CARTESIAN_POINT('Ctrl Pts',(2.6189386488563,8.04534876597979,-9.74240166325403));
#270=CARTESIAN_POINT('Ctrl Pts',(5.07712807806519,7.62148595229785,-8.71757008468972));
#271=CARTESIAN_POINT('Ctrl Pts',(6.19117783051748,7.32782715242867,-7.95095779321347));
#272=CARTESIAN_POINT('Ctrl Pts',(7.94992308235988,6.78926763300145,-6.19221254137106));
#273=CARTESIAN_POINT('Ctrl Pts',(8.7173171001089,6.50701710272786,-5.07777621222975));
#274=CARTESIAN_POINT('Ctrl Pts',(9.74275100752484,6.11002876753649,-2.61805937992822));
#275=CARTESIAN_POINT('Ctrl Pts',(10.,6.,-1.27169157680738));
#276=CARTESIAN_POINT('Ctrl Pts',(10.,6.,-1.38777878078145E-15));
#277=CARTESIAN_POINT('Ctrl Pts',(10.,6.,-1.94289029309402E-15));
#278=CARTESIAN_POINT('Ctrl Pts',(10.,6.,1.27169157680738));
#279=CARTESIAN_POINT('Ctrl Pts',(9.74275100752484,6.11002876753649,2.61805937992822));
#280=CARTESIAN_POINT('Ctrl Pts',(8.7173171001089,6.50701710272786,5.07777621222974));
#281=CARTESIAN_POINT('Ctrl Pts',(7.94992308235989,6.78926763300145,6.19221254137106));
#282=CARTESIAN_POINT('Ctrl Pts',(6.19117783051748,7.32782715242867,7.95095779321347));
#283=CARTESIAN_POINT('Ctrl Pts',(5.07712807806519,7.62148595229785,8.71757008468972));
#284=CARTESIAN_POINT('Ctrl Pts',(2.6189386488563,8.04534876597978,9.74240166325403));
#285=CARTESIAN_POINT('Ctrl Pts',(1.27318878928492,8.16767755672754,10.));
#286=CARTESIAN_POINT('Ctrl Pts',(5.55111512312578E-16,8.16767755672754,
10.));
#287=CARTESIAN_POINT('Origin',(0.,0.,0.));
#288=CARTESIAN_POINT('',(10.,0.,-1.22464679914735E-15));
#289=UNCERTAINTY_MEASURE_WITH_UNIT(LENGTH_MEASURE(0.01),#293,
'DISTANCE_ACCURACY_VALUE',
'Maximum model space distance between geometric entities at asserted c
onnectivities');
#290=UNCERTAINTY_MEASURE_WITH_UNIT(LENGTH_MEASURE(0.01),#293,
'DISTANCE_ACCURACY_VALUE',
'Maximum model space distance between geometric entities at asserted c
onnectivities');
#291=(
GEOMETRIC_REPRESENTATION_CONTEXT(3)
GLOBAL_UNCERTAINTY_ASSIGNED_CONTEXT((#289))
GLOBAL_UNIT_ASSIGNED_CONTEXT((#293,#295,#296))
REPRESENTATION_CONTEXT('','3D')
);
#292=(
GEOMETRIC_REPRESENTATION_CONTEXT(3)
GLOBAL_UNCERTAINTY_ASSIGNED_CONTEXT((#290))
GLOBAL_UNIT_ASSIGNED_CONTEXT((#293,#295,#296))
REPRESENTATION_CONTEXT('','3D')
);
#293=(
LENGTH_UNIT()
NAMED_UNIT(*)
SI_UNIT(.MILLI.,.METRE.)
);
#294=(
LENGTH_UNIT()
NAMED_UNIT(*)
SI_UNIT(.CENTI.,.METRE.)
);
#295=(
NAMED_UNIT(*)
PLANE_ANGLE_UNIT()
SI_UNIT($,.RADIAN.)
);
#296=(
NAMED_UNIT(*)
SI_UNIT($,.STERADIAN.)
SOLID_ANGLE_UNIT()
);
#297=SHAPE_DEFINITION_REPRESENTATION(#298,#299);
#298=PRODUCT_DEFINITION_SHAPE('',$,#301);
#299=SHAPE_REPRESENTATION('',(#141),#291);
#300=PRODUCT_DEFINITION_CONTEXT('part definition',#305,'design');
#301=PRODUCT_DEFINITION('41707','41707',#302,#300);
#302=PRODUCT_DEFINITION_FORMATION('',$,#307);
#303=PRODUCT_RELATED_PRODUCT_CATEGORY('41707','41707',(#307));
#304=APPLICATION_PROTOCOL_DEFINITION('international standard',
'automotive_design',2009,#305);
#305=APPLICATION_CONTEXT(
'Core Data for Automotive Mechanical Design Process');
#306=PRODUCT_CONTEXT('part definition',#305,'mechanical');
#307=PRODUCT('41707','41707',$,(#306));
#308=PRESENTATION_STYLE_ASSIGNMENT((#309));
#309=SURFACE_STYLE_USAGE(.BOTH.,#312);
#310=SURFACE_STYLE_RENDERING_WITH_PROPERTIES($,#316,(#311));
#311=SURFACE_STYLE_TRANSPARENT(0.);
#312=SURFACE_SIDE_STYLE('',(#313,#310));
#313=SURFACE_STYLE_FILL_AREA(#314);
#314=FILL_AREA_STYLE('',(#315));
#315=FILL_AREA_STYLE_COLOUR('',#316);
#316=COLOUR_RGB('',0.956862745098039,0.956862745098039,0.956862745098039);
ENDSEC;
END-ISO-10303-21;
