ISO-10303-21;
HEADER;
/* Generated by software containing ST-Developer
 * from STEP Tools, Inc. (www.steptools.com) 
 */

FILE_DESCRIPTION(
/* description */ (''),
/* implementation_level */ '2;1');

FILE_NAME(
/* name */ 
'C:\\Users\\O.Boryczka\\Desktop\\Korrigierte Zeichnungen\\Bauteile f\X\FC
r Zugstangen\\41765.ipt.step',
/* time_stamp */ '2022-07-18T12:53:22+02:00',
/* author */ ('Abt. Technik'),
/* organization */ (''),
/* preprocessor_version */ 'ST-DEVELOPER v18.1',
/* originating_system */ 'Autodesk Inventor 2022',
/* authorisation */ '');

FILE_SCHEMA (('AUTOMOTIVE_DESIGN { 1 0 10303 214 3 1 1 }'));
ENDSEC;

DATA;
#10=MECHANICAL_DESIGN_GEOMETRIC_PRESENTATION_REPRESENTATION('',(#13),#388);
#11=SHAPE_REPRESENTATION_RELATIONSHIP('SRR','None',#395,#12);
#12=ADVANCED_BREP_SHAPE_REPRESENTATION('',(#14),#387);
#13=STYLED_ITEM('',(#404),#14);
#14=MANIFOLD_SOLID_BREP('Volumenk\X\F6rper1',#205);
#15=SPHERICAL_SURFACE('',#250,10.);
#16=FACE_BOUND('',#47,.T.);
#17=FACE_BOUND('',#51,.T.);
#18=FACE_BOUND('',#53,.T.);
#19=TOROIDAL_SURFACE('',#235,9.5,0.5);
#20=PLANE('',#234);
#21=PLANE('',#246);
#22=PLANE('',#253);
#23=PLANE('',#254);
#24=PLANE('',#255);
#25=PLANE('',#256);
#26=CYLINDRICAL_SURFACE('',#232,5.);
#27=CYLINDRICAL_SURFACE('',#240,10.);
#28=CYLINDRICAL_SURFACE('',#247,4.25);
#29=FACE_OUTER_BOUND('',#41,.T.);
#30=FACE_OUTER_BOUND('',#42,.T.);
#31=FACE_OUTER_BOUND('',#43,.T.);
#32=FACE_OUTER_BOUND('',#44,.T.);
#33=FACE_OUTER_BOUND('',#45,.T.);
#34=FACE_OUTER_BOUND('',#46,.T.);
#35=FACE_OUTER_BOUND('',#48,.T.);
#36=FACE_OUTER_BOUND('',#49,.T.);
#37=FACE_OUTER_BOUND('',#50,.T.);
#38=FACE_OUTER_BOUND('',#52,.T.);
#39=FACE_OUTER_BOUND('',#54,.T.);
#40=FACE_OUTER_BOUND('',#55,.T.);
#41=EDGE_LOOP('',(#138,#139,#140,#141,#142));
#42=EDGE_LOOP('',(#143,#144,#145,#146,#147));
#43=EDGE_LOOP('',(#148));
#44=EDGE_LOOP('',(#149,#150,#151,#152,#153));
#45=EDGE_LOOP('',(#154,#155,#156,#157,#158,#159,#160,#161,#162,#163,#164,
#165,#166));
#46=EDGE_LOOP('',(#167));
#47=EDGE_LOOP('',(#168));
#48=EDGE_LOOP('',(#169,#170,#171,#172));
#49=EDGE_LOOP('',(#173,#174,#175,#176,#177));
#50=EDGE_LOOP('',(#178,#179,#180,#181));
#51=EDGE_LOOP('',(#182));
#52=EDGE_LOOP('',(#183,#184,#185,#186));
#53=EDGE_LOOP('',(#187));
#54=EDGE_LOOP('',(#188,#189));
#55=EDGE_LOOP('',(#190,#191));
#56=LINE('',#332,#66);
#57=LINE('',#338,#67);
#58=LINE('',#354,#68);
#59=LINE('',#358,#69);
#60=LINE('',#362,#70);
#61=LINE('',#366,#71);
#62=LINE('',#368,#72);
#63=LINE('',#374,#73);
#64=LINE('',#380,#74);
#65=LINE('',#382,#75);
#66=VECTOR('',#263,4.75);
#67=VECTOR('',#270,5.);
#68=VECTOR('',#289,10.);
#69=VECTOR('',#292,10.);
#70=VECTOR('',#295,10.);
#71=VECTOR('',#298,10.);
#72=VECTOR('',#301,10.);
#73=VECTOR('',#308,4.25);
#74=VECTOR('',#319,10.);
#75=VECTOR('',#322,10.);
#76=CIRCLE('',#229,4.5);
#77=CIRCLE('',#230,5.);
#78=CIRCLE('',#231,5.);
#79=CIRCLE('',#233,5.);
#80=CIRCLE('',#236,10.);
#81=CIRCLE('',#237,0.5);
#82=CIRCLE('',#238,9.5);
#83=CIRCLE('',#239,10.);
#84=CIRCLE('',#241,10.);
#85=CIRCLE('',#242,10.);
#86=CIRCLE('',#243,10.);
#87=CIRCLE('',#244,10.);
#88=CIRCLE('',#245,10.);
#89=CIRCLE('',#248,4.25);
#90=CIRCLE('',#249,4.25);
#91=CIRCLE('',#251,9.53939201416946);
#92=CIRCLE('',#252,9.53939201416946);
#93=VERTEX_POINT('',#329);
#94=VERTEX_POINT('',#331);
#95=VERTEX_POINT('',#333);
#96=VERTEX_POINT('',#337);
#97=VERTEX_POINT('',#342);
#98=VERTEX_POINT('',#343);
#99=VERTEX_POINT('',#345);
#100=VERTEX_POINT('',#350);
#101=VERTEX_POINT('',#351);
#102=VERTEX_POINT('',#353);
#103=VERTEX_POINT('',#355);
#104=VERTEX_POINT('',#357);
#105=VERTEX_POINT('',#359);
#106=VERTEX_POINT('',#361);
#107=VERTEX_POINT('',#363);
#108=VERTEX_POINT('',#365);
#109=VERTEX_POINT('',#371);
#110=VERTEX_POINT('',#373);
#111=EDGE_CURVE('',#93,#93,#76,.T.);
#112=EDGE_CURVE('',#93,#94,#56,.T.);
#113=EDGE_CURVE('',#94,#95,#77,.T.);
#114=EDGE_CURVE('',#95,#94,#78,.T.);
#115=EDGE_CURVE('',#95,#96,#57,.T.);
#116=EDGE_CURVE('',#96,#96,#79,.T.);
#117=EDGE_CURVE('',#97,#98,#80,.T.);
#118=EDGE_CURVE('',#98,#99,#81,.T.);
#119=EDGE_CURVE('',#99,#99,#82,.T.);
#120=EDGE_CURVE('',#98,#97,#83,.T.);
#121=EDGE_CURVE('',#100,#101,#84,.T.);
#122=EDGE_CURVE('',#102,#100,#58,.T.);
#123=EDGE_CURVE('',#103,#102,#85,.T.);
#124=EDGE_CURVE('',#103,#104,#59,.T.);
#125=EDGE_CURVE('',#105,#104,#86,.T.);
#126=EDGE_CURVE('',#106,#105,#60,.T.);
#127=EDGE_CURVE('',#107,#106,#87,.T.);
#128=EDGE_CURVE('',#107,#108,#61,.T.);
#129=EDGE_CURVE('',#101,#108,#88,.T.);
#130=EDGE_CURVE('',#101,#97,#62,.T.);
#131=EDGE_CURVE('',#109,#109,#89,.T.);
#132=EDGE_CURVE('',#109,#110,#63,.T.);
#133=EDGE_CURVE('',#110,#110,#90,.T.);
#134=EDGE_CURVE('',#104,#100,#91,.T.);
#135=EDGE_CURVE('',#108,#105,#92,.T.);
#136=EDGE_CURVE('',#102,#103,#64,.T.);
#137=EDGE_CURVE('',#106,#107,#65,.T.);
#138=ORIENTED_EDGE('',*,*,#111,.T.);
#139=ORIENTED_EDGE('',*,*,#112,.T.);
#140=ORIENTED_EDGE('',*,*,#113,.T.);
#141=ORIENTED_EDGE('',*,*,#114,.T.);
#142=ORIENTED_EDGE('',*,*,#112,.F.);
#143=ORIENTED_EDGE('',*,*,#113,.F.);
#144=ORIENTED_EDGE('',*,*,#114,.F.);
#145=ORIENTED_EDGE('',*,*,#115,.T.);
#146=ORIENTED_EDGE('',*,*,#116,.F.);
#147=ORIENTED_EDGE('',*,*,#115,.F.);
#148=ORIENTED_EDGE('',*,*,#111,.F.);
#149=ORIENTED_EDGE('',*,*,#117,.T.);
#150=ORIENTED_EDGE('',*,*,#118,.T.);
#151=ORIENTED_EDGE('',*,*,#119,.T.);
#152=ORIENTED_EDGE('',*,*,#118,.F.);
#153=ORIENTED_EDGE('',*,*,#120,.T.);
#154=ORIENTED_EDGE('',*,*,#121,.F.);
#155=ORIENTED_EDGE('',*,*,#122,.F.);
#156=ORIENTED_EDGE('',*,*,#123,.F.);
#157=ORIENTED_EDGE('',*,*,#124,.T.);
#158=ORIENTED_EDGE('',*,*,#125,.F.);
#159=ORIENTED_EDGE('',*,*,#126,.F.);
#160=ORIENTED_EDGE('',*,*,#127,.F.);
#161=ORIENTED_EDGE('',*,*,#128,.T.);
#162=ORIENTED_EDGE('',*,*,#129,.F.);
#163=ORIENTED_EDGE('',*,*,#130,.T.);
#164=ORIENTED_EDGE('',*,*,#120,.F.);
#165=ORIENTED_EDGE('',*,*,#117,.F.);
#166=ORIENTED_EDGE('',*,*,#130,.F.);
#167=ORIENTED_EDGE('',*,*,#119,.F.);
#168=ORIENTED_EDGE('',*,*,#116,.T.);
#169=ORIENTED_EDGE('',*,*,#131,.F.);
#170=ORIENTED_EDGE('',*,*,#132,.T.);
#171=ORIENTED_EDGE('',*,*,#133,.F.);
#172=ORIENTED_EDGE('',*,*,#132,.F.);
#173=ORIENTED_EDGE('',*,*,#134,.T.);
#174=ORIENTED_EDGE('',*,*,#121,.T.);
#175=ORIENTED_EDGE('',*,*,#129,.T.);
#176=ORIENTED_EDGE('',*,*,#135,.T.);
#177=ORIENTED_EDGE('',*,*,#125,.T.);
#178=ORIENTED_EDGE('',*,*,#134,.F.);
#179=ORIENTED_EDGE('',*,*,#124,.F.);
#180=ORIENTED_EDGE('',*,*,#136,.F.);
#181=ORIENTED_EDGE('',*,*,#122,.T.);
#182=ORIENTED_EDGE('',*,*,#133,.T.);
#183=ORIENTED_EDGE('',*,*,#135,.F.);
#184=ORIENTED_EDGE('',*,*,#128,.F.);
#185=ORIENTED_EDGE('',*,*,#137,.F.);
#186=ORIENTED_EDGE('',*,*,#126,.T.);
#187=ORIENTED_EDGE('',*,*,#131,.T.);
#188=ORIENTED_EDGE('',*,*,#136,.T.);
#189=ORIENTED_EDGE('',*,*,#123,.T.);
#190=ORIENTED_EDGE('',*,*,#137,.T.);
#191=ORIENTED_EDGE('',*,*,#127,.T.);
#192=CONICAL_SURFACE('',#228,4.75,0.78539816339745);
#193=ADVANCED_FACE('',(#29),#192,.T.);
#194=ADVANCED_FACE('',(#30),#26,.T.);
#195=ADVANCED_FACE('',(#31),#20,.T.);
#196=ADVANCED_FACE('',(#32),#19,.T.);
#197=ADVANCED_FACE('',(#33),#27,.T.);
#198=ADVANCED_FACE('',(#34,#16),#21,.F.);
#199=ADVANCED_FACE('',(#35),#28,.F.);
#200=ADVANCED_FACE('',(#36),#15,.T.);
#201=ADVANCED_FACE('',(#37,#17),#22,.T.);
#202=ADVANCED_FACE('',(#38,#18),#23,.T.);
#203=ADVANCED_FACE('',(#39),#24,.T.);
#204=ADVANCED_FACE('',(#40),#25,.T.);
#205=CLOSED_SHELL('',(#193,#194,#195,#196,#197,#198,#199,#200,#201,#202,
#203,#204));
#206=DERIVED_UNIT_ELEMENT(#209,1.);
#207=DERIVED_UNIT_ELEMENT(#390,-3.);
#208=DIMENSIONAL_EXPONENTS(1.,0.,0.,0.,0.,0.,0.);
#209=(
CONVERSION_BASED_UNIT('gram',#211)
MASS_UNIT()
NAMED_UNIT(#208)
);
#210=(
MASS_UNIT()
NAMED_UNIT(*)
SI_UNIT(.KILO.,.GRAM.)
);
#211=MASS_MEASURE_WITH_UNIT(MASS_MEASURE(0.001),#210);
#212=DERIVED_UNIT((#206,#207));
#213=MEASURE_REPRESENTATION_ITEM('density measure',
POSITIVE_RATIO_MEASURE(8.),#212);
#214=PROPERTY_DEFINITION_REPRESENTATION(#219,#216);
#215=PROPERTY_DEFINITION_REPRESENTATION(#220,#217);
#216=REPRESENTATION('material name',(#218),#387);
#217=REPRESENTATION('density',(#213),#387);
#218=DESCRIPTIVE_REPRESENTATION_ITEM('Edelstahl AISI 304',
'Edelstahl AISI 304');
#219=PROPERTY_DEFINITION('material property','material name',#397);
#220=PROPERTY_DEFINITION('material property','density of part',#397);
#221=DATE_TIME_ROLE('creation_date');
#222=APPLIED_DATE_AND_TIME_ASSIGNMENT(#223,#221,(#397));
#223=DATE_AND_TIME(#224,#225);
#224=CALENDAR_DATE(2021,30,11);
#225=LOCAL_TIME(0,0,0.,#226);
#226=COORDINATED_UNIVERSAL_TIME_OFFSET(0,0,.BEHIND.);
#227=AXIS2_PLACEMENT_3D('placement',#327,#257,#258);
#228=AXIS2_PLACEMENT_3D('',#328,#259,#260);
#229=AXIS2_PLACEMENT_3D('',#330,#261,#262);
#230=AXIS2_PLACEMENT_3D('',#334,#264,#265);
#231=AXIS2_PLACEMENT_3D('',#335,#266,#267);
#232=AXIS2_PLACEMENT_3D('',#336,#268,#269);
#233=AXIS2_PLACEMENT_3D('',#339,#271,#272);
#234=AXIS2_PLACEMENT_3D('',#340,#273,#274);
#235=AXIS2_PLACEMENT_3D('',#341,#275,#276);
#236=AXIS2_PLACEMENT_3D('',#344,#277,#278);
#237=AXIS2_PLACEMENT_3D('',#346,#279,#280);
#238=AXIS2_PLACEMENT_3D('',#347,#281,#282);
#239=AXIS2_PLACEMENT_3D('',#348,#283,#284);
#240=AXIS2_PLACEMENT_3D('',#349,#285,#286);
#241=AXIS2_PLACEMENT_3D('',#352,#287,#288);
#242=AXIS2_PLACEMENT_3D('',#356,#290,#291);
#243=AXIS2_PLACEMENT_3D('',#360,#293,#294);
#244=AXIS2_PLACEMENT_3D('',#364,#296,#297);
#245=AXIS2_PLACEMENT_3D('',#367,#299,#300);
#246=AXIS2_PLACEMENT_3D('',#369,#302,#303);
#247=AXIS2_PLACEMENT_3D('',#370,#304,#305);
#248=AXIS2_PLACEMENT_3D('',#372,#306,#307);
#249=AXIS2_PLACEMENT_3D('',#375,#309,#310);
#250=AXIS2_PLACEMENT_3D('',#376,#311,#312);
#251=AXIS2_PLACEMENT_3D('',#377,#313,#314);
#252=AXIS2_PLACEMENT_3D('',#378,#315,#316);
#253=AXIS2_PLACEMENT_3D('',#379,#317,#318);
#254=AXIS2_PLACEMENT_3D('',#381,#320,#321);
#255=AXIS2_PLACEMENT_3D('',#383,#323,#324);
#256=AXIS2_PLACEMENT_3D('',#384,#325,#326);
#257=DIRECTION('axis',(0.,0.,1.));
#258=DIRECTION('refdir',(1.,0.,0.));
#259=DIRECTION('center_axis',(0.,1.,0.));
#260=DIRECTION('ref_axis',(-1.,0.,0.));
#261=DIRECTION('center_axis',(0.,1.,0.));
#262=DIRECTION('ref_axis',(-1.,0.,0.));
#263=DIRECTION('',(0.707106781186549,0.707106781186546,8.65956056235495E-17));
#264=DIRECTION('center_axis',(0.,-1.,0.));
#265=DIRECTION('ref_axis',(-1.,0.,0.));
#266=DIRECTION('center_axis',(0.,-1.,0.));
#267=DIRECTION('ref_axis',(-1.,0.,0.));
#268=DIRECTION('center_axis',(0.,-1.,0.));
#269=DIRECTION('ref_axis',(1.,0.,0.));
#270=DIRECTION('',(0.,1.,0.));
#271=DIRECTION('center_axis',(0.,1.,0.));
#272=DIRECTION('ref_axis',(1.,0.,0.));
#273=DIRECTION('center_axis',(0.,-1.,0.));
#274=DIRECTION('ref_axis',(0.,0.,-1.));
#275=DIRECTION('center_axis',(0.,1.,0.));
#276=DIRECTION('ref_axis',(0.,0.,1.));
#277=DIRECTION('center_axis',(0.,-1.,0.));
#278=DIRECTION('ref_axis',(1.,0.,1.22464679914735E-16));
#279=DIRECTION('center_axis',(-1.,0.,1.22464679914735E-16));
#280=DIRECTION('ref_axis',(-1.22464679914735E-16,0.,-1.));
#281=DIRECTION('center_axis',(0.,1.,0.));
#282=DIRECTION('ref_axis',(1.,0.,1.22464679914735E-16));
#283=DIRECTION('center_axis',(0.,-1.,0.));
#284=DIRECTION('ref_axis',(1.,0.,1.22464679914735E-16));
#285=DIRECTION('center_axis',(0.,1.,0.));
#286=DIRECTION('ref_axis',(-1.,0.,0.));
#287=DIRECTION('center_axis',(0.,1.,0.));
#288=DIRECTION('ref_axis',(-1.,0.,0.));
#289=DIRECTION('',(0.,1.,0.));
#290=DIRECTION('center_axis',(0.,1.,0.));
#291=DIRECTION('ref_axis',(-1.,0.,0.));
#292=DIRECTION('',(0.,1.,0.));
#293=DIRECTION('center_axis',(0.,1.,0.));
#294=DIRECTION('ref_axis',(-1.,0.,0.));
#295=DIRECTION('',(0.,1.,0.));
#296=DIRECTION('center_axis',(0.,1.,0.));
#297=DIRECTION('ref_axis',(-1.,0.,0.));
#298=DIRECTION('',(0.,1.,0.));
#299=DIRECTION('center_axis',(0.,1.,0.));
#300=DIRECTION('ref_axis',(-1.,0.,0.));
#301=DIRECTION('',(0.,-1.,0.));
#302=DIRECTION('center_axis',(0.,1.,0.));
#303=DIRECTION('ref_axis',(0.,0.,1.));
#304=DIRECTION('center_axis',(0.,0.,1.));
#305=DIRECTION('ref_axis',(-1.,0.,0.));
#306=DIRECTION('center_axis',(0.,0.,1.));
#307=DIRECTION('ref_axis',(-1.,0.,0.));
#308=DIRECTION('',(0.,0.,1.));
#309=DIRECTION('center_axis',(0.,0.,-1.));
#310=DIRECTION('ref_axis',(-1.,0.,0.));
#311=DIRECTION('center_axis',(6.12323399573677E-17,0.,1.));
#312=DIRECTION('ref_axis',(1.,0.,0.));
#313=DIRECTION('center_axis',(0.,0.,-1.));
#314=DIRECTION('ref_axis',(0.,1.,0.));
#315=DIRECTION('center_axis',(0.,0.,1.));
#316=DIRECTION('ref_axis',(0.,-1.,0.));
#317=DIRECTION('center_axis',(0.,0.,1.));
#318=DIRECTION('ref_axis',(1.,0.,0.));
#319=DIRECTION('',(-1.,0.,0.));
#320=DIRECTION('center_axis',(0.,0.,-1.));
#321=DIRECTION('ref_axis',(-1.,0.,0.));
#322=DIRECTION('',(1.,0.,0.));
#323=DIRECTION('center_axis',(0.,1.,0.));
#324=DIRECTION('ref_axis',(0.,0.,1.));
#325=DIRECTION('center_axis',(0.,1.,0.));
#326=DIRECTION('ref_axis',(0.,0.,1.));
#327=CARTESIAN_POINT('',(0.,0.,0.));
#328=CARTESIAN_POINT('Origin',(0.,-51.75,0.));
#329=CARTESIAN_POINT('',(4.5,-52.,-5.51091059616309E-16));
#330=CARTESIAN_POINT('Origin',(0.,-52.,0.));
#331=CARTESIAN_POINT('',(5.,-51.5,6.12323399573677E-16));
#332=CARTESIAN_POINT('',(4.75,-51.75,5.81707229594993E-16));
#333=CARTESIAN_POINT('',(-5.,-51.5,-6.12323399573677E-16));
#334=CARTESIAN_POINT('Origin',(0.,-51.5,0.));
#335=CARTESIAN_POINT('Origin',(0.,-51.5,0.));
#336=CARTESIAN_POINT('Origin',(0.,0.,0.));
#337=CARTESIAN_POINT('',(-5.,0.,-6.12323399573677E-16));
#338=CARTESIAN_POINT('',(-5.,0.,-6.12323399573677E-16));
#339=CARTESIAN_POINT('Origin',(0.,0.,0.));
#340=CARTESIAN_POINT('Origin',(0.,-52.,0.));
#341=CARTESIAN_POINT('Origin',(0.,0.5,0.));
#342=CARTESIAN_POINT('',(10.,0.5,-1.22464679914735E-15));
#343=CARTESIAN_POINT('',(-1.22464679914735E-15,0.5,-10.));
#344=CARTESIAN_POINT('Origin',(0.,0.5,0.));
#345=CARTESIAN_POINT('',(-1.16341445918999E-15,0.,-9.5));
#346=CARTESIAN_POINT('Origin',(-1.16341445918999E-15,0.5,-9.5));
#347=CARTESIAN_POINT('Origin',(0.,0.,0.));
#348=CARTESIAN_POINT('Origin',(0.,0.5,0.));
#349=CARTESIAN_POINT('Origin',(0.,0.,0.));
#350=CARTESIAN_POINT('',(9.53939201416946,23.,3.));
#351=CARTESIAN_POINT('',(10.,23.,-1.22464679914735E-15));
#352=CARTESIAN_POINT('Origin',(0.,23.,0.));
#353=CARTESIAN_POINT('',(9.53939201416946,11.,3.));
#354=CARTESIAN_POINT('',(9.53939201416946,11.,3.));
#355=CARTESIAN_POINT('',(-9.53939201416946,11.,3.));
#356=CARTESIAN_POINT('Origin',(0.,11.,0.));
#357=CARTESIAN_POINT('',(-9.53939201416946,23.,3.));
#358=CARTESIAN_POINT('',(-9.53939201416946,11.,3.));
#359=CARTESIAN_POINT('',(-9.53939201416946,23.,-3.));
#360=CARTESIAN_POINT('Origin',(0.,23.,0.));
#361=CARTESIAN_POINT('',(-9.53939201416946,11.,-3.));
#362=CARTESIAN_POINT('',(-9.53939201416946,11.,-3.));
#363=CARTESIAN_POINT('',(9.53939201416946,11.,-3.));
#364=CARTESIAN_POINT('Origin',(0.,11.,0.));
#365=CARTESIAN_POINT('',(9.53939201416946,23.,-3.));
#366=CARTESIAN_POINT('',(9.53939201416946,11.,-3.));
#367=CARTESIAN_POINT('Origin',(0.,23.,0.));
#368=CARTESIAN_POINT('',(10.,0.,-1.22464679914735E-15));
#369=CARTESIAN_POINT('Origin',(0.,0.,0.));
#370=CARTESIAN_POINT('Origin',(0.,25.,-3.));
#371=CARTESIAN_POINT('',(4.25,25.,-3.));
#372=CARTESIAN_POINT('Origin',(0.,25.,-3.));
#373=CARTESIAN_POINT('',(4.25,25.,3.));
#374=CARTESIAN_POINT('',(4.25,25.,-3.));
#375=CARTESIAN_POINT('Origin',(0.,25.,3.));
#376=CARTESIAN_POINT('Origin',(0.,23.,0.));
#377=CARTESIAN_POINT('Origin',(0.,23.,3.));
#378=CARTESIAN_POINT('Origin',(0.,23.,-3.));
#379=CARTESIAN_POINT('Origin',(-9.53939201416946,11.,3.));
#380=CARTESIAN_POINT('',(-4.76969600708473,11.,3.));
#381=CARTESIAN_POINT('Origin',(9.53939201416946,11.,-3.));
#382=CARTESIAN_POINT('',(4.76969600708473,11.,-3.));
#383=CARTESIAN_POINT('Origin',(0.,11.,0.));
#384=CARTESIAN_POINT('Origin',(0.,11.,0.));
#385=UNCERTAINTY_MEASURE_WITH_UNIT(LENGTH_MEASURE(0.01),#389,
'DISTANCE_ACCURACY_VALUE',
'Maximum model space distance between geometric entities at asserted c
onnectivities');
#386=UNCERTAINTY_MEASURE_WITH_UNIT(LENGTH_MEASURE(0.01),#389,
'DISTANCE_ACCURACY_VALUE',
'Maximum model space distance between geometric entities at asserted c
onnectivities');
#387=(
GEOMETRIC_REPRESENTATION_CONTEXT(3)
GLOBAL_UNCERTAINTY_ASSIGNED_CONTEXT((#385))
GLOBAL_UNIT_ASSIGNED_CONTEXT((#389,#391,#392))
REPRESENTATION_CONTEXT('','3D')
);
#388=(
GEOMETRIC_REPRESENTATION_CONTEXT(3)
GLOBAL_UNCERTAINTY_ASSIGNED_CONTEXT((#386))
GLOBAL_UNIT_ASSIGNED_CONTEXT((#389,#391,#392))
REPRESENTATION_CONTEXT('','3D')
);
#389=(
LENGTH_UNIT()
NAMED_UNIT(*)
SI_UNIT(.MILLI.,.METRE.)
);
#390=(
LENGTH_UNIT()
NAMED_UNIT(*)
SI_UNIT(.CENTI.,.METRE.)
);
#391=(
NAMED_UNIT(*)
PLANE_ANGLE_UNIT()
SI_UNIT($,.RADIAN.)
);
#392=(
NAMED_UNIT(*)
SI_UNIT($,.STERADIAN.)
SOLID_ANGLE_UNIT()
);
#393=SHAPE_DEFINITION_REPRESENTATION(#394,#395);
#394=PRODUCT_DEFINITION_SHAPE('',$,#397);
#395=SHAPE_REPRESENTATION('',(#227),#387);
#396=PRODUCT_DEFINITION_CONTEXT('part definition',#401,'design');
#397=PRODUCT_DEFINITION('41765','41765',#398,#396);
#398=PRODUCT_DEFINITION_FORMATION('',$,#403);
#399=PRODUCT_RELATED_PRODUCT_CATEGORY('41765','41765',(#403));
#400=APPLICATION_PROTOCOL_DEFINITION('international standard',
'automotive_design',2009,#401);
#401=APPLICATION_CONTEXT(
'Core Data for Automotive Mechanical Design Process');
#402=PRODUCT_CONTEXT('part definition',#401,'mechanical');
#403=PRODUCT('41765','41765',$,(#402));
#404=PRESENTATION_STYLE_ASSIGNMENT((#405));
#405=SURFACE_STYLE_USAGE(.BOTH.,#408);
#406=SURFACE_STYLE_RENDERING_WITH_PROPERTIES($,#412,(#407));
#407=SURFACE_STYLE_TRANSPARENT(0.);
#408=SURFACE_SIDE_STYLE('',(#409,#406));
#409=SURFACE_STYLE_FILL_AREA(#410);
#410=FILL_AREA_STYLE('',(#411));
#411=FILL_AREA_STYLE_COLOUR('',#412);
#412=COLOUR_RGB('',0.956862745098039,0.956862745098039,0.956862745098039);
ENDSEC;
END-ISO-10303-21;
