ISO-10303-21;
HEADER;
/* Generated by software containing ST-Developer
 * from STEP Tools, Inc. (www.steptools.com) 
 */

FILE_DESCRIPTION(
/* description */ (''),
/* implementation_level */ '2;1');

FILE_NAME(
/* name */ '41894.ipt.step',
/* time_stamp */ '2022-08-22T09:47:50+02:00',
/* author */ ('Nutzer'),
/* organization */ (''),
/* preprocessor_version */ 'ST-DEVELOPER v19.2',
/* originating_system */ 'Autodesk Inventor 2023',
/* authorisation */ '');

FILE_SCHEMA (('AUTOMOTIVE_DESIGN { 1 0 10303 214 3 1 1 }'));
ENDSEC;

DATA;
#10=MECHANICAL_DESIGN_GEOMETRIC_PRESENTATION_REPRESENTATION('',(#13),#350);
#11=SHAPE_REPRESENTATION_RELATIONSHIP('SRR','None',#357,#12);
#12=ADVANCED_BREP_SHAPE_REPRESENTATION('',(#14),#349);
#13=STYLED_ITEM('',(#366),#14);
#14=MANIFOLD_SOLID_BREP('Volumenk\X\F6rper1',#125);
#15=B_SPLINE_CURVE_WITH_KNOTS('',3,(#213,#214,#215,#216,#217,#218,#219,
#220,#221,#222,#223,#224,#225,#226,#227,#228,#229,#230,#231,#232,#233,#234,
#235,#236,#237,#238,#239),.UNSPECIFIED.,.F.,.F.,(4,2,2,2,2,2,3,2,2,2,2,
2,4),(5.69550919402348,5.9309460580704,6.16638292211731,6.63725665021115,
7.11563445445456,7.35482335657627,7.59401225869798,7.83320116081969,8.07239006294139,
8.55076786718481,9.02164159527864,9.25707845932556,9.49251532337247),
 .UNSPECIFIED.);
#16=B_SPLINE_CURVE_WITH_KNOTS('',3,(#240,#241,#242,#243,#244,#245,#246,
#247,#248,#249,#250,#251,#252,#253,#254,#255,#256,#257,#258,#259,#260,#261,
#262,#263,#264,#265),.UNSPECIFIED.,.F.,.F.,(4,2,2,2,2,2,2,2,2,2,2,2,4),
(1.89850306467449,2.13393992872141,2.36937679276833,2.84025052086216,3.31862832510557,
3.55781722722728,3.79700612934899,4.0361950314707,4.2753839335924,4.75376173783582,
5.22463546592965,5.46007232997657,5.69550919402348),.UNSPECIFIED.);
#17=B_SPLINE_CURVE_WITH_KNOTS('',3,(#273,#274,#275,#276,#277,#278,#279,
#280,#281,#282,#283,#284,#285,#286,#287,#288,#289,#290,#291,#292,#293,#294,
#295,#296,#297,#298,#299,#300,#301,#302,#303,#304,#305,#306,#307),
 .UNSPECIFIED.,.F.,.F.,(4,2,2,2,2,2,2,2,3,2,2,2,2,2,2,2,4),(7.5240993836247,
7.82692209409302,8.12974480456135,8.43256751502967,8.735390225498,9.0595757969984,
9.3837613684988,9.70794693999919,10.0321325114996,10.356318083,10.6805036545004,
11.0046892260008,11.3288747975012,11.6316975079695,11.9345202184378,12.2373429289062,
12.5401656393745),.UNSPECIFIED.);
#18=B_SPLINE_CURVE_WITH_KNOTS('',3,(#308,#309,#310,#311,#312,#313,#314,
#315,#316,#317,#318,#319,#320,#321,#322,#323,#324,#325,#326,#327,#328,#329,
#330,#331,#332,#333,#334,#335,#336,#337,#338,#339,#340,#341),
 .UNSPECIFIED.,.F.,.F.,(4,2,2,2,2,2,2,2,2,2,2,2,2,2,2,2,4),(2.5080331278749,
2.81085583834322,3.11367854881155,3.41650125927988,3.7193239697482,4.0435095412486,
4.367695112749,4.6918806842494,5.0160662557498,5.3402518272502,5.66443739875059,
5.98862297025099,6.31280854175139,6.61563125221972,6.91845396268804,7.22127667315637,
7.5240993836247),.UNSPECIFIED.);
#19=FACE_BOUND('',#36,.T.);
#20=FACE_BOUND('',#40,.T.);
#21=FACE_BOUND('',#42,.T.);
#22=FACE_BOUND('',#45,.T.);
#23=PLANE('',#151);
#24=PLANE('',#157);
#25=PLANE('',#161);
#26=FACE_OUTER_BOUND('',#34,.T.);
#27=FACE_OUTER_BOUND('',#35,.T.);
#28=FACE_OUTER_BOUND('',#37,.T.);
#29=FACE_OUTER_BOUND('',#38,.T.);
#30=FACE_OUTER_BOUND('',#39,.T.);
#31=FACE_OUTER_BOUND('',#41,.T.);
#32=FACE_OUTER_BOUND('',#43,.T.);
#33=FACE_OUTER_BOUND('',#44,.T.);
#34=EDGE_LOOP('',(#84,#85,#86,#87));
#35=EDGE_LOOP('',(#88));
#36=EDGE_LOOP('',(#89));
#37=EDGE_LOOP('',(#90,#91,#92,#93));
#38=EDGE_LOOP('',(#94,#95,#96,#97,#98));
#39=EDGE_LOOP('',(#99));
#40=EDGE_LOOP('',(#100));
#41=EDGE_LOOP('',(#101,#102));
#42=EDGE_LOOP('',(#103,#104));
#43=EDGE_LOOP('',(#105,#106,#107,#108,#109));
#44=EDGE_LOOP('',(#110));
#45=EDGE_LOOP('',(#111));
#46=LINE('',#201,#50);
#47=LINE('',#208,#51);
#48=LINE('',#267,#52);
#49=LINE('',#345,#53);
#50=VECTOR('',#168,6.);
#51=VECTOR('',#177,4.25);
#52=VECTOR('',#182,15.);
#53=VECTOR('',#193,15.);
#54=CIRCLE('',#149,6.);
#55=CIRCLE('',#150,6.);
#56=CIRCLE('',#152,4.25);
#57=CIRCLE('',#154,4.25);
#58=CIRCLE('',#156,12.);
#59=CIRCLE('',#160,15.);
#60=VERTEX_POINT('',#198);
#61=VERTEX_POINT('',#200);
#62=VERTEX_POINT('',#204);
#63=VERTEX_POINT('',#207);
#64=VERTEX_POINT('',#211);
#65=VERTEX_POINT('',#212);
#66=VERTEX_POINT('',#266);
#67=VERTEX_POINT('',#271);
#68=VERTEX_POINT('',#272);
#69=VERTEX_POINT('',#343);
#70=EDGE_CURVE('',#60,#60,#54,.T.);
#71=EDGE_CURVE('',#60,#61,#46,.T.);
#72=EDGE_CURVE('',#61,#61,#55,.T.);
#73=EDGE_CURVE('',#62,#62,#56,.T.);
#74=EDGE_CURVE('',#62,#63,#47,.T.);
#75=EDGE_CURVE('',#63,#63,#57,.T.);
#76=EDGE_CURVE('',#64,#65,#15,.T.);
#77=EDGE_CURVE('',#65,#64,#16,.T.);
#78=EDGE_CURVE('',#65,#66,#48,.T.);
#79=EDGE_CURVE('',#66,#66,#58,.F.);
#80=EDGE_CURVE('',#67,#68,#17,.T.);
#81=EDGE_CURVE('',#68,#67,#18,.T.);
#82=EDGE_CURVE('',#69,#69,#59,.T.);
#83=EDGE_CURVE('',#69,#68,#49,.T.);
#84=ORIENTED_EDGE('',*,*,#70,.F.);
#85=ORIENTED_EDGE('',*,*,#71,.T.);
#86=ORIENTED_EDGE('',*,*,#72,.F.);
#87=ORIENTED_EDGE('',*,*,#71,.F.);
#88=ORIENTED_EDGE('',*,*,#70,.T.);
#89=ORIENTED_EDGE('',*,*,#73,.T.);
#90=ORIENTED_EDGE('',*,*,#73,.F.);
#91=ORIENTED_EDGE('',*,*,#74,.T.);
#92=ORIENTED_EDGE('',*,*,#75,.F.);
#93=ORIENTED_EDGE('',*,*,#74,.F.);
#94=ORIENTED_EDGE('',*,*,#76,.F.);
#95=ORIENTED_EDGE('',*,*,#77,.F.);
#96=ORIENTED_EDGE('',*,*,#78,.T.);
#97=ORIENTED_EDGE('',*,*,#79,.T.);
#98=ORIENTED_EDGE('',*,*,#78,.F.);
#99=ORIENTED_EDGE('',*,*,#79,.F.);
#100=ORIENTED_EDGE('',*,*,#75,.T.);
#101=ORIENTED_EDGE('',*,*,#80,.F.);
#102=ORIENTED_EDGE('',*,*,#81,.F.);
#103=ORIENTED_EDGE('',*,*,#77,.T.);
#104=ORIENTED_EDGE('',*,*,#76,.T.);
#105=ORIENTED_EDGE('',*,*,#82,.F.);
#106=ORIENTED_EDGE('',*,*,#83,.T.);
#107=ORIENTED_EDGE('',*,*,#81,.T.);
#108=ORIENTED_EDGE('',*,*,#80,.T.);
#109=ORIENTED_EDGE('',*,*,#83,.F.);
#110=ORIENTED_EDGE('',*,*,#82,.T.);
#111=ORIENTED_EDGE('',*,*,#72,.T.);
#112=CYLINDRICAL_SURFACE('',#148,6.);
#113=CYLINDRICAL_SURFACE('',#153,4.25);
#114=CYLINDRICAL_SURFACE('',#155,12.);
#115=CYLINDRICAL_SURFACE('',#158,16.85);
#116=CYLINDRICAL_SURFACE('',#159,15.);
#117=ADVANCED_FACE('',(#26),#112,.T.);
#118=ADVANCED_FACE('',(#27,#19),#23,.T.);
#119=ADVANCED_FACE('',(#28),#113,.F.);
#120=ADVANCED_FACE('',(#29),#114,.F.);
#121=ADVANCED_FACE('',(#30,#20),#24,.F.);
#122=ADVANCED_FACE('',(#31,#21),#115,.F.);
#123=ADVANCED_FACE('',(#32),#116,.T.);
#124=ADVANCED_FACE('',(#33,#22),#25,.T.);
#125=CLOSED_SHELL('',(#117,#118,#119,#120,#121,#122,#123,#124));
#126=DERIVED_UNIT_ELEMENT(#129,1.);
#127=DERIVED_UNIT_ELEMENT(#352,-3.);
#128=DIMENSIONAL_EXPONENTS(0.,1.,0.,0.,0.,0.,0.);
#129=(
CONVERSION_BASED_UNIT('gram',#131)
MASS_UNIT()
NAMED_UNIT(#128)
);
#130=(
MASS_UNIT()
NAMED_UNIT(*)
SI_UNIT(.KILO.,.GRAM.)
);
#131=MASS_MEASURE_WITH_UNIT(MASS_MEASURE(0.001),#130);
#132=DERIVED_UNIT((#126,#127));
#133=MEASURE_REPRESENTATION_ITEM('density measure',
POSITIVE_RATIO_MEASURE(8.),#132);
#134=PROPERTY_DEFINITION_REPRESENTATION(#139,#136);
#135=PROPERTY_DEFINITION_REPRESENTATION(#140,#137);
#136=REPRESENTATION('material name',(#138),#349);
#137=REPRESENTATION('density',(#133),#349);
#138=DESCRIPTIVE_REPRESENTATION_ITEM('Edelstahl AISI 304',
'Edelstahl AISI 304');
#139=PROPERTY_DEFINITION('material property','material name',#359);
#140=PROPERTY_DEFINITION('material property','density of part',#359);
#141=DATE_TIME_ROLE('creation_date');
#142=APPLIED_DATE_AND_TIME_ASSIGNMENT(#143,#141,(#359));
#143=DATE_AND_TIME(#144,#145);
#144=CALENDAR_DATE(2021,12,11);
#145=LOCAL_TIME(0,0,0.,#146);
#146=COORDINATED_UNIVERSAL_TIME_OFFSET(0,0,.BEHIND.);
#147=AXIS2_PLACEMENT_3D('placement',#196,#162,#163);
#148=AXIS2_PLACEMENT_3D('',#197,#164,#165);
#149=AXIS2_PLACEMENT_3D('',#199,#166,#167);
#150=AXIS2_PLACEMENT_3D('',#202,#169,#170);
#151=AXIS2_PLACEMENT_3D('',#203,#171,#172);
#152=AXIS2_PLACEMENT_3D('',#205,#173,#174);
#153=AXIS2_PLACEMENT_3D('',#206,#175,#176);
#154=AXIS2_PLACEMENT_3D('',#209,#178,#179);
#155=AXIS2_PLACEMENT_3D('',#210,#180,#181);
#156=AXIS2_PLACEMENT_3D('',#268,#183,#184);
#157=AXIS2_PLACEMENT_3D('',#269,#185,#186);
#158=AXIS2_PLACEMENT_3D('',#270,#187,#188);
#159=AXIS2_PLACEMENT_3D('',#342,#189,#190);
#160=AXIS2_PLACEMENT_3D('',#344,#191,#192);
#161=AXIS2_PLACEMENT_3D('',#346,#194,#195);
#162=DIRECTION('axis',(0.,0.,1.));
#163=DIRECTION('refdir',(1.,0.,0.));
#164=DIRECTION('center_axis',(0.,1.,0.));
#165=DIRECTION('ref_axis',(1.,0.,0.));
#166=DIRECTION('center_axis',(0.,1.,0.));
#167=DIRECTION('ref_axis',(1.,0.,0.));
#168=DIRECTION('',(0.,-1.,0.));
#169=DIRECTION('center_axis',(0.,-1.,0.));
#170=DIRECTION('ref_axis',(1.,0.,0.));
#171=DIRECTION('center_axis',(0.,1.,0.));
#172=DIRECTION('ref_axis',(0.,0.,1.));
#173=DIRECTION('center_axis',(0.,-1.,0.));
#174=DIRECTION('ref_axis',(-1.,0.,0.));
#175=DIRECTION('center_axis',(0.,-1.,0.));
#176=DIRECTION('ref_axis',(1.,0.,0.));
#177=DIRECTION('',(0.,-1.,0.));
#178=DIRECTION('center_axis',(0.,1.,0.));
#179=DIRECTION('ref_axis',(1.,0.,0.));
#180=DIRECTION('center_axis',(0.,1.,0.));
#181=DIRECTION('ref_axis',(-1.,0.,0.));
#182=DIRECTION('',(0.,1.,0.));
#183=DIRECTION('center_axis',(0.,-1.,0.));
#184=DIRECTION('ref_axis',(-1.,0.,0.));
#185=DIRECTION('center_axis',(0.,1.,0.));
#186=DIRECTION('ref_axis',(0.,0.,1.));
#187=DIRECTION('center_axis',(1.,0.,0.));
#188=DIRECTION('ref_axis',(0.,1.,0.));
#189=DIRECTION('center_axis',(0.,1.,0.));
#190=DIRECTION('ref_axis',(-1.,0.,0.));
#191=DIRECTION('center_axis',(0.,1.,0.));
#192=DIRECTION('ref_axis',(-1.,0.,0.));
#193=DIRECTION('',(0.,-1.,0.));
#194=DIRECTION('center_axis',(0.,1.,0.));
#195=DIRECTION('ref_axis',(0.,0.,1.));
#196=CARTESIAN_POINT('',(0.,0.,0.));
#197=CARTESIAN_POINT('Origin',(0.,6.,0.));
#198=CARTESIAN_POINT('',(-6.,7.5,7.34788079488412E-16));
#199=CARTESIAN_POINT('Origin',(0.,7.5,0.));
#200=CARTESIAN_POINT('',(-6.,6.,7.34788079488412E-16));
#201=CARTESIAN_POINT('',(-6.,6.,7.34788079488412E-16));
#202=CARTESIAN_POINT('Origin',(0.,6.,0.));
#203=CARTESIAN_POINT('Origin',(0.,7.5,0.));
#204=CARTESIAN_POINT('',(-4.25,7.5,-5.20474889637625E-16));
#205=CARTESIAN_POINT('Origin',(0.,7.5,0.));
#206=CARTESIAN_POINT('Origin',(0.,6.,0.));
#207=CARTESIAN_POINT('',(-4.25,3.,5.20474889637625E-16));
#208=CARTESIAN_POINT('',(-4.25,6.,-5.20474889637625E-16));
#209=CARTESIAN_POINT('Origin',(0.,3.,0.));
#210=CARTESIAN_POINT('Origin',(0.,0.,0.));
#211=CARTESIAN_POINT('',(-12.,-8.50014503228635E-16,0.));
#212=CARTESIAN_POINT('',(12.,-7.54604712049911E-16,8.32667268468867E-16));
#213=CARTESIAN_POINT('Ctrl Pts',(-12.,-8.41340885848751E-16,-2.77555756156289E-16));
#214=CARTESIAN_POINT('Ctrl Pts',(-12.,-8.95796599871757E-16,0.784789546823052));
#215=CARTESIAN_POINT('Ctrl Pts',(-11.9217760405741,-0.0559990825367274,
1.58722309144273));
#216=CARTESIAN_POINT('Ctrl Pts',(-11.6029594925168,-0.280799903443788,3.16533601898705));
#217=CARTESIAN_POINT('Ctrl Pts',(-11.3625023692922,-0.449476255440657,3.94106062462189));
#218=CARTESIAN_POINT('Ctrl Pts',(-10.4282826347883,-1.08724447018889,6.14854289535737));
#219=CARTESIAN_POINT('Ctrl Pts',(-9.51140283459316,-1.69433813194168,7.45915991388398));
#220=CARTESIAN_POINT('Ctrl Pts',(-7.44280713580823,-2.90007719501064,9.52775561266892));
#221=CARTESIAN_POINT('Ctrl Pts',(-6.1349398421703,-3.59419311840083,10.4343366417529));
#222=CARTESIAN_POINT('Ctrl Pts',(-3.94501848249764,-4.39910320045767,11.3606785353941));
#223=CARTESIAN_POINT('Ctrl Pts',(-3.17628259027632,-4.62640021053837,11.5998251160773));
#224=CARTESIAN_POINT('Ctrl Pts',(-1.60255856157937,-4.93799698458703,11.9195855322645));
#225=CARTESIAN_POINT('Ctrl Pts',(-0.797296340405692,-5.02111585989617,12.));
#226=CARTESIAN_POINT('Ctrl Pts',(0.,-5.02111585989617,12.));
#227=CARTESIAN_POINT('Ctrl Pts',(0.797296340405693,-5.02111585989617,12.));
#228=CARTESIAN_POINT('Ctrl Pts',(1.60255856157937,-4.93799698458703,11.9195855322644));
#229=CARTESIAN_POINT('Ctrl Pts',(3.17628259027632,-4.62640021053836,11.5998251160773));
#230=CARTESIAN_POINT('Ctrl Pts',(3.94501848249765,-4.39910320045767,11.3606785353941));
#231=CARTESIAN_POINT('Ctrl Pts',(6.1349398421703,-3.59419311840083,10.4343366417529));
#232=CARTESIAN_POINT('Ctrl Pts',(7.44280713580823,-2.90007719501064,9.52775561266892));
#233=CARTESIAN_POINT('Ctrl Pts',(9.51140283459316,-1.69433813194168,7.45915991388398));
#234=CARTESIAN_POINT('Ctrl Pts',(10.4282826347883,-1.08724447018889,6.14854289535737));
#235=CARTESIAN_POINT('Ctrl Pts',(11.3625023692922,-0.449476255440657,3.94106062462189));
#236=CARTESIAN_POINT('Ctrl Pts',(11.6029594925168,-0.280799903443788,3.16533601898705));
#237=CARTESIAN_POINT('Ctrl Pts',(11.9217760405741,-0.0559990825367276,1.58722309144273));
#238=CARTESIAN_POINT('Ctrl Pts',(12.,-4.57091227071168E-16,0.78478954682305));
#239=CARTESIAN_POINT('Ctrl Pts',(12.,-5.55111512312578E-16,-1.66533453693773E-15));
#240=CARTESIAN_POINT('Ctrl Pts',(12.,-6.93889390390723E-16,-1.66533453693773E-15));
#241=CARTESIAN_POINT('Ctrl Pts',(12.,-7.91909675632133E-16,-0.784789546823053));
#242=CARTESIAN_POINT('Ctrl Pts',(11.9217760405741,-0.0559990825367275,-1.58722309144273));
#243=CARTESIAN_POINT('Ctrl Pts',(11.6029594925168,-0.280799903443788,-3.16533601898705));
#244=CARTESIAN_POINT('Ctrl Pts',(11.3625023692922,-0.449476255440657,-3.94106062462189));
#245=CARTESIAN_POINT('Ctrl Pts',(10.4282826347883,-1.08724447018889,-6.14854289535737));
#246=CARTESIAN_POINT('Ctrl Pts',(9.51140283459316,-1.69433813194168,-7.45915991388398));
#247=CARTESIAN_POINT('Ctrl Pts',(7.44280713580822,-2.90007719501064,-9.52775561266892));
#248=CARTESIAN_POINT('Ctrl Pts',(6.1349398421703,-3.59419311840083,-10.4343366417529));
#249=CARTESIAN_POINT('Ctrl Pts',(3.94501848249764,-4.39910320045767,-11.3606785353941));
#250=CARTESIAN_POINT('Ctrl Pts',(3.17628259027632,-4.62640021053836,-11.5998251160773));
#251=CARTESIAN_POINT('Ctrl Pts',(1.60255856157937,-4.93799698458703,-11.9195855322644));
#252=CARTESIAN_POINT('Ctrl Pts',(0.797296340405693,-5.02111585989617,-12.));
#253=CARTESIAN_POINT('Ctrl Pts',(-0.797296340405693,-5.02111585989617,-12.));
#254=CARTESIAN_POINT('Ctrl Pts',(-1.60255856157937,-4.93799698458703,-11.9195855322644));
#255=CARTESIAN_POINT('Ctrl Pts',(-3.17628259027632,-4.62640021053836,-11.5998251160773));
#256=CARTESIAN_POINT('Ctrl Pts',(-3.94501848249764,-4.39910320045767,-11.3606785353941));
#257=CARTESIAN_POINT('Ctrl Pts',(-6.1349398421703,-3.59419311840083,-10.4343366417529));
#258=CARTESIAN_POINT('Ctrl Pts',(-7.44280713580823,-2.90007719501064,-9.52775561266892));
#259=CARTESIAN_POINT('Ctrl Pts',(-9.51140283459316,-1.69433813194168,-7.45915991388398));
#260=CARTESIAN_POINT('Ctrl Pts',(-10.4282826347883,-1.08724447018889,-6.14854289535737));
#261=CARTESIAN_POINT('Ctrl Pts',(-11.3625023692922,-0.449476255440657,-3.94106062462189));
#262=CARTESIAN_POINT('Ctrl Pts',(-11.6029594925168,-0.280799903443788,-3.16533601898705));
#263=CARTESIAN_POINT('Ctrl Pts',(-11.9217760405741,-0.0559990825367274,
-1.58722309144273));
#264=CARTESIAN_POINT('Ctrl Pts',(-12.,-9.13143834631525E-16,-0.784789546823052));
#265=CARTESIAN_POINT('Ctrl Pts',(-12.,-8.5868812060852E-16,2.77555756156289E-16));
#266=CARTESIAN_POINT('',(12.,3.,1.46957615897682E-15));
#267=CARTESIAN_POINT('',(12.,0.,-1.46957615897682E-15));
#268=CARTESIAN_POINT('Origin',(0.,3.,0.));
#269=CARTESIAN_POINT('Origin',(0.,3.,0.));
#270=CARTESIAN_POINT('Origin',(0.,-16.85,0.));
#271=CARTESIAN_POINT('',(-15.,0.,0.));
#272=CARTESIAN_POINT('',(15.,0.,0.));
#273=CARTESIAN_POINT('Ctrl Pts',(-15.,-1.21430643318376E-15,-3.88578058618805E-15));
#274=CARTESIAN_POINT('Ctrl Pts',(-15.,-1.07422278920821E-15,1.00940903489442));
#275=CARTESIAN_POINT('Ctrl Pts',(-14.8965126212326,-0.0923317801596224,
2.03377671298071));
#276=CARTESIAN_POINT('Ctrl Pts',(-14.4835555310815,-0.45833331497966,4.033479286677));
#277=CARTESIAN_POINT('Ctrl Pts',(-14.1742704724526,-0.731826757444598,5.00888457608746));
#278=CARTESIAN_POINT('Ctrl Pts',(-13.3844551006993,-1.4218049061479,6.84508711207441));
#279=CARTESIAN_POINT('Ctrl Pts',(-12.9032079823581,-1.83886227973829,7.7081417833951));
#280=CARTESIAN_POINT('Ctrl Pts',(-11.823938352976,-2.75578141100088,9.27915447324829));
#281=CARTESIAN_POINT('Ctrl Pts',(-11.2259441194374,-3.25542487088867,9.98725931615907));
#282=CARTESIAN_POINT('Ctrl Pts',(-9.94356733005597,-4.29428719877665,11.2696361055405));
#283=CARTESIAN_POINT('Ctrl Pts',(-9.20602419883049,-4.87557093505278,11.8814461238068));
#284=CARTESIAN_POINT('Ctrl Pts',(-7.6180490065765,-6.04857695748715,12.957043378961));
#285=CARTESIAN_POINT('Ctrl Pts',(-6.76822633136021,-6.64070664857646,13.4212858187397));
#286=CARTESIAN_POINT('Ctrl Pts',(-4.98444823706001,-7.72498810143403,14.1807909238681));
#287=CARTESIAN_POINT('Ctrl Pts',(-4.05272643705551,-8.2171058969906,14.4765070892684));
#288=CARTESIAN_POINT('Ctrl Pts',(-2.10128937828,-8.9431870120296,14.8855107117037));
#289=CARTESIAN_POINT('Ctrl Pts',(-1.080618571668,-9.17390073018854,15.));
#290=CARTESIAN_POINT('Ctrl Pts',(0.,-9.17390073018854,15.));
#291=CARTESIAN_POINT('Ctrl Pts',(1.080618571668,-9.17390073018854,15.));
#292=CARTESIAN_POINT('Ctrl Pts',(2.10128937828,-8.9431870120296,14.8855107117037));
#293=CARTESIAN_POINT('Ctrl Pts',(4.05272643705551,-8.21710589699059,14.4765070892684));
#294=CARTESIAN_POINT('Ctrl Pts',(4.98444823706001,-7.72498810143403,14.1807909238682));
#295=CARTESIAN_POINT('Ctrl Pts',(6.76822633136021,-6.64070664857647,13.4212858187397));
#296=CARTESIAN_POINT('Ctrl Pts',(7.6180490065765,-6.04857695748715,12.9570433789611));
#297=CARTESIAN_POINT('Ctrl Pts',(9.20602419883048,-4.87557093505278,11.8814461238068));
#298=CARTESIAN_POINT('Ctrl Pts',(9.94356733005597,-4.29428719877665,11.2696361055405));
#299=CARTESIAN_POINT('Ctrl Pts',(11.2259441194374,-3.25542487088868,9.98725931615908));
#300=CARTESIAN_POINT('Ctrl Pts',(11.823938352976,-2.75578141100089,9.2791544732483));
#301=CARTESIAN_POINT('Ctrl Pts',(12.9032079823581,-1.8388622797383,7.70814178339511));
#302=CARTESIAN_POINT('Ctrl Pts',(13.3844551006993,-1.4218049061479,6.84508711207442));
#303=CARTESIAN_POINT('Ctrl Pts',(14.1742704724526,-0.731826757444602,5.00888457608746));
#304=CARTESIAN_POINT('Ctrl Pts',(14.4835555310815,-0.45833331497966,4.03347928667701));
#305=CARTESIAN_POINT('Ctrl Pts',(14.8965126212326,-0.0923317801596218,2.03377671298072));
#306=CARTESIAN_POINT('Ctrl Pts',(15.,-1.20160383468362E-15,1.00940903489442));
#307=CARTESIAN_POINT('Ctrl Pts',(15.,-1.07552855510562E-15,1.66533453693773E-15));
#308=CARTESIAN_POINT('Ctrl Pts',(15.,-1.16226472890446E-15,1.11022302462516E-15));
#309=CARTESIAN_POINT('Ctrl Pts',(15.,-1.07821454251913E-15,-1.00940903489442));
#310=CARTESIAN_POINT('Ctrl Pts',(14.8965126212326,-0.0923317801596219,-2.03377671298072));
#311=CARTESIAN_POINT('Ctrl Pts',(14.4835555310815,-0.45833331497966,-4.03347928667701));
#312=CARTESIAN_POINT('Ctrl Pts',(14.1742704724526,-0.7318267574446,-5.00888457608746));
#313=CARTESIAN_POINT('Ctrl Pts',(13.3844551006993,-1.4218049061479,-6.84508711207442));
#314=CARTESIAN_POINT('Ctrl Pts',(12.9032079823581,-1.83886227973829,-7.70814178339511));
#315=CARTESIAN_POINT('Ctrl Pts',(11.823938352976,-2.75578141100088,-9.2791544732483));
#316=CARTESIAN_POINT('Ctrl Pts',(11.2259441194374,-3.25542487088868,-9.98725931615907));
#317=CARTESIAN_POINT('Ctrl Pts',(9.94356733005597,-4.29428719877665,-11.2696361055405));
#318=CARTESIAN_POINT('Ctrl Pts',(9.20602419883048,-4.87557093505278,-11.8814461238068));
#319=CARTESIAN_POINT('Ctrl Pts',(7.6180490065765,-6.04857695748715,-12.957043378961));
#320=CARTESIAN_POINT('Ctrl Pts',(6.76822633136021,-6.64070664857646,-13.4212858187397));
#321=CARTESIAN_POINT('Ctrl Pts',(4.98444823706001,-7.72498810143403,-14.1807909238681));
#322=CARTESIAN_POINT('Ctrl Pts',(4.05272643705551,-8.2171058969906,-14.4765070892684));
#323=CARTESIAN_POINT('Ctrl Pts',(2.10128937828,-8.9431870120296,-14.8855107117037));
#324=CARTESIAN_POINT('Ctrl Pts',(1.080618571668,-9.17390073018854,-15.));
#325=CARTESIAN_POINT('Ctrl Pts',(-1.080618571668,-9.17390073018854,-15.));
#326=CARTESIAN_POINT('Ctrl Pts',(-2.10128937828,-8.9431870120296,-14.8855107117037));
#327=CARTESIAN_POINT('Ctrl Pts',(-4.05272643705551,-8.21710589699059,-14.4765070892684));
#328=CARTESIAN_POINT('Ctrl Pts',(-4.98444823706001,-7.72498810143403,-14.1807909238682));
#329=CARTESIAN_POINT('Ctrl Pts',(-6.76822633136021,-6.64070664857647,-13.4212858187397));
#330=CARTESIAN_POINT('Ctrl Pts',(-7.6180490065765,-6.04857695748715,-12.9570433789611));
#331=CARTESIAN_POINT('Ctrl Pts',(-9.20602419883048,-4.87557093505278,-11.8814461238068));
#332=CARTESIAN_POINT('Ctrl Pts',(-9.94356733005596,-4.29428719877665,-11.2696361055405));
#333=CARTESIAN_POINT('Ctrl Pts',(-11.2259441194373,-3.25542487088868,-9.98725931615908));
#334=CARTESIAN_POINT('Ctrl Pts',(-11.823938352976,-2.75578141100088,-9.2791544732483));
#335=CARTESIAN_POINT('Ctrl Pts',(-12.9032079823581,-1.8388622797383,-7.70814178339511));
#336=CARTESIAN_POINT('Ctrl Pts',(-13.3844551006993,-1.4218049061479,-6.84508711207442));
#337=CARTESIAN_POINT('Ctrl Pts',(-14.1742704724526,-0.7318267574446,-5.00888457608746));
#338=CARTESIAN_POINT('Ctrl Pts',(-14.4835555310815,-0.45833331497966,-4.03347928667701));
#339=CARTESIAN_POINT('Ctrl Pts',(-14.8965126212326,-0.0923317801596218,
-2.03377671298072));
#340=CARTESIAN_POINT('Ctrl Pts',(-15.,-1.20958734130546E-15,-1.00940903489442));
#341=CARTESIAN_POINT('Ctrl Pts',(-15.,-9.71445146547012E-16,-3.88578058618805E-15));
#342=CARTESIAN_POINT('Origin',(0.,0.,0.));
#343=CARTESIAN_POINT('',(15.,6.,-1.83697019872103E-15));
#344=CARTESIAN_POINT('Origin',(0.,6.,0.));
#345=CARTESIAN_POINT('',(15.,0.,-1.83697019872103E-15));
#346=CARTESIAN_POINT('Origin',(0.,6.,0.));
#347=UNCERTAINTY_MEASURE_WITH_UNIT(LENGTH_MEASURE(0.01),#351,
'DISTANCE_ACCURACY_VALUE',
'Maximum model space distance between geometric entities at asserted c
onnectivities');
#348=UNCERTAINTY_MEASURE_WITH_UNIT(LENGTH_MEASURE(0.01),#351,
'DISTANCE_ACCURACY_VALUE',
'Maximum model space distance between geometric entities at asserted c
onnectivities');
#349=(
GEOMETRIC_REPRESENTATION_CONTEXT(3)
GLOBAL_UNCERTAINTY_ASSIGNED_CONTEXT((#347))
GLOBAL_UNIT_ASSIGNED_CONTEXT((#351,#353,#354))
REPRESENTATION_CONTEXT('','3D')
);
#350=(
GEOMETRIC_REPRESENTATION_CONTEXT(3)
GLOBAL_UNCERTAINTY_ASSIGNED_CONTEXT((#348))
GLOBAL_UNIT_ASSIGNED_CONTEXT((#351,#353,#354))
REPRESENTATION_CONTEXT('','3D')
);
#351=(
LENGTH_UNIT()
NAMED_UNIT(*)
SI_UNIT(.MILLI.,.METRE.)
);
#352=(
LENGTH_UNIT()
NAMED_UNIT(*)
SI_UNIT(.CENTI.,.METRE.)
);
#353=(
NAMED_UNIT(*)
PLANE_ANGLE_UNIT()
SI_UNIT($,.RADIAN.)
);
#354=(
NAMED_UNIT(*)
SI_UNIT($,.STERADIAN.)
SOLID_ANGLE_UNIT()
);
#355=SHAPE_DEFINITION_REPRESENTATION(#356,#357);
#356=PRODUCT_DEFINITION_SHAPE('',$,#359);
#357=SHAPE_REPRESENTATION('',(#147),#349);
#358=PRODUCT_DEFINITION_CONTEXT('part definition',#363,'design');
#359=PRODUCT_DEFINITION('41894','41894',#360,#358);
#360=PRODUCT_DEFINITION_FORMATION('',$,#365);
#361=PRODUCT_RELATED_PRODUCT_CATEGORY('41894','41894',(#365));
#362=APPLICATION_PROTOCOL_DEFINITION('international standard',
'automotive_design',2009,#363);
#363=APPLICATION_CONTEXT(
'Core Data for Automotive Mechanical Design Process');
#364=PRODUCT_CONTEXT('part definition',#363,'mechanical');
#365=PRODUCT('41894','41894',$,(#364));
#366=PRESENTATION_STYLE_ASSIGNMENT((#367));
#367=SURFACE_STYLE_USAGE(.BOTH.,#370);
#368=SURFACE_STYLE_RENDERING_WITH_PROPERTIES($,#374,(#369));
#369=SURFACE_STYLE_TRANSPARENT(0.);
#370=SURFACE_SIDE_STYLE('',(#371,#368));
#371=SURFACE_STYLE_FILL_AREA(#372);
#372=FILL_AREA_STYLE('',(#373));
#373=FILL_AREA_STYLE_COLOUR('',#374);
#374=COLOUR_RGB('',0.956862745098039,0.956862745098039,0.956862745098039);
ENDSEC;
END-ISO-10303-21;
