ISO-10303-21;
HEADER;
/* Generated by software containing ST-Developer
 * from STEP Tools, Inc. (www.steptools.com) 
 */

FILE_DESCRIPTION(
/* description */ (''),
/* implementation_level */ '2;1');

FILE_NAME(
/* name */ '41896.ipt.step',
/* time_stamp */ '2022-08-22T09:47:52+02:00',
/* author */ ('Nutzer'),
/* organization */ (''),
/* preprocessor_version */ 'ST-DEVELOPER v19.2',
/* originating_system */ 'Autodesk Inventor 2023',
/* authorisation */ '');

FILE_SCHEMA (('AUTOMOTIVE_DESIGN { 1 0 10303 214 3 1 1 }'));
ENDSEC;

DATA;
#10=MECHANICAL_DESIGN_GEOMETRIC_PRESENTATION_REPRESENTATION('',(#13),#334);
#11=SHAPE_REPRESENTATION_RELATIONSHIP('SRR','None',#341,#12);
#12=ADVANCED_BREP_SHAPE_REPRESENTATION('',(#14),#333);
#13=STYLED_ITEM('',(#350),#14);
#14=MANIFOLD_SOLID_BREP('Volumenk\X\F6rper1',#125);
#15=B_SPLINE_CURVE_WITH_KNOTS('',3,(#213,#214,#215,#216,#217,#218,#219,
#220,#221,#222,#223,#224,#225,#226,#227,#228,#229,#230,#231,#232,#233,#234,
#235,#236,#237,#238,#239),.UNSPECIFIED.,.F.,.F.,(4,2,2,2,2,2,3,2,2,2,2,
2,4),(5.5730025584103,5.80464476966032,6.03628698091034,6.49957140341037,
6.96512074064539,7.1978954092629,7.4306700778804,7.66344474649791,7.89621941511542,
8.36176875235044,8.82505317485047,9.05669538610049,9.28833759735051),
 .UNSPECIFIED.);
#16=B_SPLINE_CURVE_WITH_KNOTS('',3,(#240,#241,#242,#243,#244,#245,#246,
#247,#248,#249,#250,#251,#252,#253,#254,#255,#256,#257,#258,#259,#260,#261,
#262,#263,#264,#265),.UNSPECIFIED.,.F.,.F.,(4,2,2,2,2,2,2,2,2,2,2,2,4),
(1.8576675194701,2.08930973072012,2.32095194197014,2.78423636447017,3.24978570170519,
3.48256037032269,3.7153350389402,3.94810970755771,4.18088437617522,4.64643371341023,
5.10971813591027,5.34136034716029,5.5730025584103),.UNSPECIFIED.);
#17=B_SPLINE_CURVE_WITH_KNOTS('',3,(#273,#274,#275,#276,#277,#278,#279,
#280,#281,#282,#283,#284,#285,#286,#287,#288,#289,#290,#291,#292,#293,#294,
#295,#296,#297,#298,#299),.UNSPECIFIED.,.F.,.F.,(4,2,2,2,2,2,3,2,2,2,2,
2,4),(7.11311131488286,7.40723111062504,7.70135090636722,8.28959049785157,
8.88686945884769,9.18550893934576,9.48414841984381,9.78278790034187,10.0814273808399,
10.6787063418361,11.2669459333204,11.5610657290626,11.8551855248048),
 .UNSPECIFIED.);
#18=B_SPLINE_CURVE_WITH_KNOTS('',3,(#300,#301,#302,#303,#304,#305,#306,
#307,#308,#309,#310,#311,#312,#313,#314,#315,#316,#317,#318,#319,#320,#321,
#322,#323,#324,#325),.UNSPECIFIED.,.F.,.F.,(4,2,2,2,2,2,2,2,2,2,2,2,4),
(2.37103710496095,2.66515690070313,2.95927669644531,3.54751628792967,4.14479524892579,
4.44343472942385,4.74207420992191,5.04071369041997,5.33935317091803,5.93663213191414,
6.5248717233985,6.81899151914068,7.11311131488286),.UNSPECIFIED.);
#19=FACE_BOUND('',#36,.T.);
#20=FACE_BOUND('',#40,.T.);
#21=FACE_BOUND('',#42,.T.);
#22=FACE_BOUND('',#45,.T.);
#23=PLANE('',#151);
#24=PLANE('',#157);
#25=PLANE('',#161);
#26=FACE_OUTER_BOUND('',#34,.T.);
#27=FACE_OUTER_BOUND('',#35,.T.);
#28=FACE_OUTER_BOUND('',#37,.T.);
#29=FACE_OUTER_BOUND('',#38,.T.);
#30=FACE_OUTER_BOUND('',#39,.T.);
#31=FACE_OUTER_BOUND('',#41,.T.);
#32=FACE_OUTER_BOUND('',#43,.T.);
#33=FACE_OUTER_BOUND('',#44,.T.);
#34=EDGE_LOOP('',(#84,#85,#86,#87));
#35=EDGE_LOOP('',(#88));
#36=EDGE_LOOP('',(#89));
#37=EDGE_LOOP('',(#90,#91,#92,#93));
#38=EDGE_LOOP('',(#94,#95,#96,#97,#98));
#39=EDGE_LOOP('',(#99));
#40=EDGE_LOOP('',(#100));
#41=EDGE_LOOP('',(#101,#102));
#42=EDGE_LOOP('',(#103,#104));
#43=EDGE_LOOP('',(#105,#106,#107,#108,#109));
#44=EDGE_LOOP('',(#110));
#45=EDGE_LOOP('',(#111));
#46=LINE('',#201,#50);
#47=LINE('',#208,#51);
#48=LINE('',#267,#52);
#49=LINE('',#329,#53);
#50=VECTOR('',#168,6.);
#51=VECTOR('',#177,4.25);
#52=VECTOR('',#182,15.);
#53=VECTOR('',#193,15.);
#54=CIRCLE('',#149,6.);
#55=CIRCLE('',#150,6.);
#56=CIRCLE('',#152,4.25);
#57=CIRCLE('',#154,4.25);
#58=CIRCLE('',#156,12.);
#59=CIRCLE('',#160,15.);
#60=VERTEX_POINT('',#198);
#61=VERTEX_POINT('',#200);
#62=VERTEX_POINT('',#204);
#63=VERTEX_POINT('',#207);
#64=VERTEX_POINT('',#211);
#65=VERTEX_POINT('',#212);
#66=VERTEX_POINT('',#266);
#67=VERTEX_POINT('',#271);
#68=VERTEX_POINT('',#272);
#69=VERTEX_POINT('',#327);
#70=EDGE_CURVE('',#60,#60,#54,.T.);
#71=EDGE_CURVE('',#60,#61,#46,.T.);
#72=EDGE_CURVE('',#61,#61,#55,.T.);
#73=EDGE_CURVE('',#62,#62,#56,.T.);
#74=EDGE_CURVE('',#62,#63,#47,.T.);
#75=EDGE_CURVE('',#63,#63,#57,.T.);
#76=EDGE_CURVE('',#64,#65,#15,.T.);
#77=EDGE_CURVE('',#65,#64,#16,.T.);
#78=EDGE_CURVE('',#65,#66,#48,.T.);
#79=EDGE_CURVE('',#66,#66,#58,.F.);
#80=EDGE_CURVE('',#67,#68,#17,.T.);
#81=EDGE_CURVE('',#68,#67,#18,.T.);
#82=EDGE_CURVE('',#69,#69,#59,.T.);
#83=EDGE_CURVE('',#69,#68,#49,.T.);
#84=ORIENTED_EDGE('',*,*,#70,.F.);
#85=ORIENTED_EDGE('',*,*,#71,.T.);
#86=ORIENTED_EDGE('',*,*,#72,.F.);
#87=ORIENTED_EDGE('',*,*,#71,.F.);
#88=ORIENTED_EDGE('',*,*,#70,.T.);
#89=ORIENTED_EDGE('',*,*,#73,.T.);
#90=ORIENTED_EDGE('',*,*,#73,.F.);
#91=ORIENTED_EDGE('',*,*,#74,.T.);
#92=ORIENTED_EDGE('',*,*,#75,.F.);
#93=ORIENTED_EDGE('',*,*,#74,.F.);
#94=ORIENTED_EDGE('',*,*,#76,.F.);
#95=ORIENTED_EDGE('',*,*,#77,.F.);
#96=ORIENTED_EDGE('',*,*,#78,.T.);
#97=ORIENTED_EDGE('',*,*,#79,.T.);
#98=ORIENTED_EDGE('',*,*,#78,.F.);
#99=ORIENTED_EDGE('',*,*,#79,.F.);
#100=ORIENTED_EDGE('',*,*,#75,.T.);
#101=ORIENTED_EDGE('',*,*,#80,.F.);
#102=ORIENTED_EDGE('',*,*,#81,.F.);
#103=ORIENTED_EDGE('',*,*,#77,.T.);
#104=ORIENTED_EDGE('',*,*,#76,.T.);
#105=ORIENTED_EDGE('',*,*,#82,.F.);
#106=ORIENTED_EDGE('',*,*,#83,.T.);
#107=ORIENTED_EDGE('',*,*,#81,.T.);
#108=ORIENTED_EDGE('',*,*,#80,.T.);
#109=ORIENTED_EDGE('',*,*,#83,.F.);
#110=ORIENTED_EDGE('',*,*,#82,.T.);
#111=ORIENTED_EDGE('',*,*,#72,.T.);
#112=CYLINDRICAL_SURFACE('',#148,6.);
#113=CYLINDRICAL_SURFACE('',#153,4.25);
#114=CYLINDRICAL_SURFACE('',#155,12.);
#115=CYLINDRICAL_SURFACE('',#158,21.2);
#116=CYLINDRICAL_SURFACE('',#159,15.);
#117=ADVANCED_FACE('',(#26),#112,.T.);
#118=ADVANCED_FACE('',(#27,#19),#23,.T.);
#119=ADVANCED_FACE('',(#28),#113,.F.);
#120=ADVANCED_FACE('',(#29),#114,.F.);
#121=ADVANCED_FACE('',(#30,#20),#24,.F.);
#122=ADVANCED_FACE('',(#31,#21),#115,.F.);
#123=ADVANCED_FACE('',(#32),#116,.T.);
#124=ADVANCED_FACE('',(#33,#22),#25,.T.);
#125=CLOSED_SHELL('',(#117,#118,#119,#120,#121,#122,#123,#124));
#126=DERIVED_UNIT_ELEMENT(#129,1.);
#127=DERIVED_UNIT_ELEMENT(#336,-3.);
#128=DIMENSIONAL_EXPONENTS(0.,1.,0.,0.,0.,0.,0.);
#129=(
CONVERSION_BASED_UNIT('gram',#131)
MASS_UNIT()
NAMED_UNIT(#128)
);
#130=(
MASS_UNIT()
NAMED_UNIT(*)
SI_UNIT(.KILO.,.GRAM.)
);
#131=MASS_MEASURE_WITH_UNIT(MASS_MEASURE(0.001),#130);
#132=DERIVED_UNIT((#126,#127));
#133=MEASURE_REPRESENTATION_ITEM('density measure',
POSITIVE_RATIO_MEASURE(8.),#132);
#134=PROPERTY_DEFINITION_REPRESENTATION(#139,#136);
#135=PROPERTY_DEFINITION_REPRESENTATION(#140,#137);
#136=REPRESENTATION('material name',(#138),#333);
#137=REPRESENTATION('density',(#133),#333);
#138=DESCRIPTIVE_REPRESENTATION_ITEM('Edelstahl AISI 304',
'Edelstahl AISI 304');
#139=PROPERTY_DEFINITION('material property','material name',#343);
#140=PROPERTY_DEFINITION('material property','density of part',#343);
#141=DATE_TIME_ROLE('creation_date');
#142=APPLIED_DATE_AND_TIME_ASSIGNMENT(#143,#141,(#343));
#143=DATE_AND_TIME(#144,#145);
#144=CALENDAR_DATE(2021,12,11);
#145=LOCAL_TIME(0,0,0.,#146);
#146=COORDINATED_UNIVERSAL_TIME_OFFSET(0,0,.BEHIND.);
#147=AXIS2_PLACEMENT_3D('placement',#196,#162,#163);
#148=AXIS2_PLACEMENT_3D('',#197,#164,#165);
#149=AXIS2_PLACEMENT_3D('',#199,#166,#167);
#150=AXIS2_PLACEMENT_3D('',#202,#169,#170);
#151=AXIS2_PLACEMENT_3D('',#203,#171,#172);
#152=AXIS2_PLACEMENT_3D('',#205,#173,#174);
#153=AXIS2_PLACEMENT_3D('',#206,#175,#176);
#154=AXIS2_PLACEMENT_3D('',#209,#178,#179);
#155=AXIS2_PLACEMENT_3D('',#210,#180,#181);
#156=AXIS2_PLACEMENT_3D('',#268,#183,#184);
#157=AXIS2_PLACEMENT_3D('',#269,#185,#186);
#158=AXIS2_PLACEMENT_3D('',#270,#187,#188);
#159=AXIS2_PLACEMENT_3D('',#326,#189,#190);
#160=AXIS2_PLACEMENT_3D('',#328,#191,#192);
#161=AXIS2_PLACEMENT_3D('',#330,#194,#195);
#162=DIRECTION('axis',(0.,0.,1.));
#163=DIRECTION('refdir',(1.,0.,0.));
#164=DIRECTION('center_axis',(0.,1.,0.));
#165=DIRECTION('ref_axis',(1.,0.,0.));
#166=DIRECTION('center_axis',(0.,1.,0.));
#167=DIRECTION('ref_axis',(1.,0.,0.));
#168=DIRECTION('',(0.,-1.,0.));
#169=DIRECTION('center_axis',(0.,-1.,0.));
#170=DIRECTION('ref_axis',(1.,0.,0.));
#171=DIRECTION('center_axis',(0.,1.,0.));
#172=DIRECTION('ref_axis',(0.,0.,1.));
#173=DIRECTION('center_axis',(0.,-1.,0.));
#174=DIRECTION('ref_axis',(-1.,0.,0.));
#175=DIRECTION('center_axis',(0.,-1.,0.));
#176=DIRECTION('ref_axis',(1.,0.,0.));
#177=DIRECTION('',(0.,-1.,0.));
#178=DIRECTION('center_axis',(0.,1.,0.));
#179=DIRECTION('ref_axis',(1.,0.,0.));
#180=DIRECTION('center_axis',(0.,1.,0.));
#181=DIRECTION('ref_axis',(-1.,0.,0.));
#182=DIRECTION('',(0.,1.,0.));
#183=DIRECTION('center_axis',(0.,-1.,0.));
#184=DIRECTION('ref_axis',(-1.,0.,0.));
#185=DIRECTION('center_axis',(0.,1.,0.));
#186=DIRECTION('ref_axis',(0.,0.,1.));
#187=DIRECTION('center_axis',(1.,0.,0.));
#188=DIRECTION('ref_axis',(0.,1.,0.));
#189=DIRECTION('center_axis',(0.,1.,0.));
#190=DIRECTION('ref_axis',(-1.,0.,0.));
#191=DIRECTION('center_axis',(0.,1.,0.));
#192=DIRECTION('ref_axis',(-1.,0.,0.));
#193=DIRECTION('',(0.,-1.,0.));
#194=DIRECTION('center_axis',(0.,1.,0.));
#195=DIRECTION('ref_axis',(0.,0.,1.));
#196=CARTESIAN_POINT('',(0.,0.,0.));
#197=CARTESIAN_POINT('Origin',(0.,6.,0.));
#198=CARTESIAN_POINT('',(-6.,7.5,7.34788079488412E-16));
#199=CARTESIAN_POINT('Origin',(0.,7.5,0.));
#200=CARTESIAN_POINT('',(-6.,6.,7.34788079488412E-16));
#201=CARTESIAN_POINT('',(-6.,6.,7.34788079488412E-16));
#202=CARTESIAN_POINT('Origin',(0.,6.,0.));
#203=CARTESIAN_POINT('Origin',(0.,7.5,0.));
#204=CARTESIAN_POINT('',(-4.25,7.5,-5.20474889637625E-16));
#205=CARTESIAN_POINT('Origin',(0.,7.5,0.));
#206=CARTESIAN_POINT('Origin',(0.,6.,0.));
#207=CARTESIAN_POINT('',(-4.25,3.,5.20474889637625E-16));
#208=CARTESIAN_POINT('',(-4.25,6.,-5.20474889637625E-16));
#209=CARTESIAN_POINT('Origin',(0.,3.,0.));
#210=CARTESIAN_POINT('Origin',(0.,0.,0.));
#211=CARTESIAN_POINT('',(-12.,-9.80118763926896E-16,-2.91433543964104E-15));
#212=CARTESIAN_POINT('',(12.,-1.16226472890446E-15,-1.11022302462516E-15));
#213=CARTESIAN_POINT('Ctrl Pts',(-12.,-9.8879238130678E-16,-2.91433543964104E-15));
#214=CARTESIAN_POINT('Ctrl Pts',(-12.,-1.00486578858208E-15,0.772140704166722));
#215=CARTESIAN_POINT('Ctrl Pts',(-11.9242701398207,-0.0431710808383167,
1.56514006956191));
#216=CARTESIAN_POINT('Ctrl Pts',(-11.6116724418412,-0.217766361870637,3.1316042062862));
#217=CARTESIAN_POINT('Ctrl Pts',(-11.3749200236042,-0.349086694879249,3.90510358312078));
#218=CARTESIAN_POINT('Ctrl Pts',(-10.4475012732201,-0.845211566033563,6.11590245759041));
#219=CARTESIAN_POINT('Ctrl Pts',(-9.52862930950737,-1.3164928434635,7.44193343896977));
#220=CARTESIAN_POINT('Ctrl Pts',(-7.43683269740037,-2.23010473083709,9.53373005107677));
#221=CARTESIAN_POINT('Ctrl Pts',(-6.11232807591418,-2.73972764002429,10.4489764217712));
#222=CARTESIAN_POINT('Ctrl Pts',(-3.9071427259707,-3.30583635327723,11.3740767545498));
#223=CARTESIAN_POINT('Ctrl Pts',(-3.13562571637451,-3.46105119169768,11.6105598962015));
#224=CARTESIAN_POINT('Ctrl Pts',(-1.57005678315613,-3.66993340120046,11.923597242171));
#225=CARTESIAN_POINT('Ctrl Pts',(-0.77591556205836,-3.72315818003722,12.));
#226=CARTESIAN_POINT('Ctrl Pts',(0.,-3.72315818003722,12.));
#227=CARTESIAN_POINT('Ctrl Pts',(0.775915562058359,-3.72315818003722,12.));
#228=CARTESIAN_POINT('Ctrl Pts',(1.57005678315612,-3.66993340120046,11.923597242171));
#229=CARTESIAN_POINT('Ctrl Pts',(3.13562571637451,-3.46105119169768,11.6105598962015));
#230=CARTESIAN_POINT('Ctrl Pts',(3.9071427259707,-3.30583635327723,11.3740767545498));
#231=CARTESIAN_POINT('Ctrl Pts',(6.11232807591417,-2.73972764002429,10.4489764217712));
#232=CARTESIAN_POINT('Ctrl Pts',(7.43683269740037,-2.23010473083709,9.53373005107677));
#233=CARTESIAN_POINT('Ctrl Pts',(9.52862930950737,-1.3164928434635,7.44193343896977));
#234=CARTESIAN_POINT('Ctrl Pts',(10.4475012732201,-0.845211566033564,6.11590245759041));
#235=CARTESIAN_POINT('Ctrl Pts',(11.3749200236042,-0.349086694879249,3.90510358312079));
#236=CARTESIAN_POINT('Ctrl Pts',(11.6116724418412,-0.217766361870637,3.1316042062862));
#237=CARTESIAN_POINT('Ctrl Pts',(11.9242701398207,-0.0431710808383166,1.56514006956191));
#238=CARTESIAN_POINT('Ctrl Pts',(12.,-9.65600994099173E-16,0.772140704166726));
#239=CARTESIAN_POINT('Ctrl Pts',(12.,-7.45931094670027E-16,1.11022302462516E-15));
#240=CARTESIAN_POINT('Ctrl Pts',(12.,-1.14491749414469E-15,-1.2490009027033E-15));
#241=CARTESIAN_POINT('Ctrl Pts',(12.,-1.11812848201919E-15,-0.772140704166726));
#242=CARTESIAN_POINT('Ctrl Pts',(11.9242701398207,-0.0431710808383168,-1.56514006956191));
#243=CARTESIAN_POINT('Ctrl Pts',(11.6116724418412,-0.217766361870637,-3.1316042062862));
#244=CARTESIAN_POINT('Ctrl Pts',(11.3749200236042,-0.349086694879249,-3.90510358312078));
#245=CARTESIAN_POINT('Ctrl Pts',(10.4475012732201,-0.845211566033563,-6.11590245759041));
#246=CARTESIAN_POINT('Ctrl Pts',(9.52862930950737,-1.3164928434635,-7.44193343896977));
#247=CARTESIAN_POINT('Ctrl Pts',(7.43683269740037,-2.23010473083709,-9.53373005107677));
#248=CARTESIAN_POINT('Ctrl Pts',(6.11232807591417,-2.73972764002428,-10.4489764217712));
#249=CARTESIAN_POINT('Ctrl Pts',(3.9071427259707,-3.30583635327723,-11.3740767545498));
#250=CARTESIAN_POINT('Ctrl Pts',(3.13562571637451,-3.46105119169768,-11.6105598962015));
#251=CARTESIAN_POINT('Ctrl Pts',(1.57005678315612,-3.66993340120045,-11.923597242171));
#252=CARTESIAN_POINT('Ctrl Pts',(0.775915562058359,-3.72315818003722,-12.));
#253=CARTESIAN_POINT('Ctrl Pts',(-0.775915562058359,-3.72315818003722,-12.));
#254=CARTESIAN_POINT('Ctrl Pts',(-1.57005678315612,-3.66993340120045,-11.923597242171));
#255=CARTESIAN_POINT('Ctrl Pts',(-3.13562571637451,-3.46105119169768,-11.6105598962015));
#256=CARTESIAN_POINT('Ctrl Pts',(-3.9071427259707,-3.30583635327723,-11.3740767545498));
#257=CARTESIAN_POINT('Ctrl Pts',(-6.11232807591417,-2.73972764002429,-10.4489764217712));
#258=CARTESIAN_POINT('Ctrl Pts',(-7.43683269740037,-2.23010473083709,-9.53373005107677));
#259=CARTESIAN_POINT('Ctrl Pts',(-9.52862930950737,-1.3164928434635,-7.44193343896977));
#260=CARTESIAN_POINT('Ctrl Pts',(-10.4475012732201,-0.845211566033563,-6.11590245759042));
#261=CARTESIAN_POINT('Ctrl Pts',(-11.3749200236042,-0.349086694879249,-3.90510358312079));
#262=CARTESIAN_POINT('Ctrl Pts',(-11.6116724418412,-0.217766361870637,-3.1316042062862));
#263=CARTESIAN_POINT('Ctrl Pts',(-11.9242701398207,-0.0431710808383168,
-1.56514006956191));
#264=CARTESIAN_POINT('Ctrl Pts',(-12.,-9.94918343717735E-16,-0.772140704166728));
#265=CARTESIAN_POINT('Ctrl Pts',(-12.,-9.62771529167128E-16,-3.19189119579733E-15));
#266=CARTESIAN_POINT('',(12.,3.,1.46957615897682E-15));
#267=CARTESIAN_POINT('',(12.,0.,-1.46957615897682E-15));
#268=CARTESIAN_POINT('Origin',(0.,3.,0.));
#269=CARTESIAN_POINT('Origin',(0.,3.,0.));
#270=CARTESIAN_POINT('Origin',(0.,-21.2,-2.59625121419239E-15));
#271=CARTESIAN_POINT('',(-15.,0.,-2.59625121419239E-15));
#272=CARTESIAN_POINT('',(15.,0.,-2.59625121419239E-15));
#273=CARTESIAN_POINT('Ctrl Pts',(-15.,-2.94902990916057E-16,-3.60822483003176E-15));
#274=CARTESIAN_POINT('Ctrl Pts',(-15.,-3.22114538351975E-16,0.98039931914059));
#275=CARTESIAN_POINT('Ctrl Pts',(-14.9023366481218,-0.069466571926341,1.98300190760564));
#276=CARTESIAN_POINT('Ctrl Pts',(-14.5041083319815,-0.348406202695454,3.95509489458257));
#277=CARTESIAN_POINT('Ctrl Pts',(-14.2037119952212,-0.557723277314805,4.92464140021008));
#278=CARTESIAN_POINT('Ctrl Pts',(-13.0362660470455,-1.34913454663919,7.6841297617902));
#279=CARTESIAN_POINT('Ctrl Pts',(-11.8900933825589,-2.10243472624517,9.32311005303749));
#280=CARTESIAN_POINT('Ctrl Pts',(-9.30338687290648,-3.59711096841382,11.9098165626899));
#281=CARTESIAN_POINT('Ctrl Pts',(-7.66783222825198,-4.45655588995081,13.0434994446773));
#282=CARTESIAN_POINT('Ctrl Pts',(-4.92955417706234,-5.4514316018532,14.2014640355712));
#283=CARTESIAN_POINT('Ctrl Pts',(-3.96840625955287,-5.73203238351494,14.5003029242608));
#284=CARTESIAN_POINT('Ctrl Pts',(-2.0015264232005,-6.11637033849305,14.8996954390622));
#285=CARTESIAN_POINT('Ctrl Pts',(-0.995464934993529,-6.218678295958,15.));
#286=CARTESIAN_POINT('Ctrl Pts',(0.,-6.218678295958,15.));
#287=CARTESIAN_POINT('Ctrl Pts',(0.995464934993532,-6.218678295958,15.));
#288=CARTESIAN_POINT('Ctrl Pts',(2.0015264232005,-6.11637033849305,14.8996954390622));
#289=CARTESIAN_POINT('Ctrl Pts',(3.96840625955288,-5.73203238351494,14.5003029242608));
#290=CARTESIAN_POINT('Ctrl Pts',(4.92955417706235,-5.4514316018532,14.2014640355712));
#291=CARTESIAN_POINT('Ctrl Pts',(7.66783222825198,-4.45655588995081,13.0434994446773));
#292=CARTESIAN_POINT('Ctrl Pts',(9.30338687290648,-3.59711096841383,11.9098165626899));
#293=CARTESIAN_POINT('Ctrl Pts',(11.8900933825589,-2.10243472624518,9.3231100530375));
#294=CARTESIAN_POINT('Ctrl Pts',(13.0362660470455,-1.34913454663919,7.6841297617902));
#295=CARTESIAN_POINT('Ctrl Pts',(14.2037119952212,-0.557723277314805,4.92464140021008));
#296=CARTESIAN_POINT('Ctrl Pts',(14.5041083319815,-0.348406202695454,3.95509489458258));
#297=CARTESIAN_POINT('Ctrl Pts',(14.9023366481218,-0.0694665719263403,1.98300190760565));
#298=CARTESIAN_POINT('Ctrl Pts',(15.,-1.26839077774958E-15,0.980399319140597));
#299=CARTESIAN_POINT('Ctrl Pts',(15.,-1.02348685082632E-15,1.38777878078145E-15));
#300=CARTESIAN_POINT('Ctrl Pts',(15.,-4.68375338513738E-16,1.11022302462516E-15));
#301=CARTESIAN_POINT('Ctrl Pts',(15.,-3.18711827616189E-16,-0.980399319140594));
#302=CARTESIAN_POINT('Ctrl Pts',(14.9023366481218,-0.0694665719263407,-1.98300190760565));
#303=CARTESIAN_POINT('Ctrl Pts',(14.5041083319815,-0.348406202695454,-3.95509489458258));
#304=CARTESIAN_POINT('Ctrl Pts',(14.2037119952212,-0.557723277314802,-4.92464140021008));
#305=CARTESIAN_POINT('Ctrl Pts',(13.0362660470455,-1.34913454663918,-7.6841297617902));
#306=CARTESIAN_POINT('Ctrl Pts',(11.8900933825589,-2.10243472624517,-9.3231100530375));
#307=CARTESIAN_POINT('Ctrl Pts',(9.30338687290648,-3.59711096841382,-11.9098165626899));
#308=CARTESIAN_POINT('Ctrl Pts',(7.66783222825198,-4.45655588995081,-13.0434994446773));
#309=CARTESIAN_POINT('Ctrl Pts',(4.92955417706234,-5.45143160185319,-14.2014640355712));
#310=CARTESIAN_POINT('Ctrl Pts',(3.96840625955288,-5.73203238351493,-14.5003029242608));
#311=CARTESIAN_POINT('Ctrl Pts',(2.0015264232005,-6.11637033849304,-14.8996954390622));
#312=CARTESIAN_POINT('Ctrl Pts',(0.995464934993532,-6.21867829595799,-15.));
#313=CARTESIAN_POINT('Ctrl Pts',(-0.995464934993532,-6.21867829595799,-15.));
#314=CARTESIAN_POINT('Ctrl Pts',(-2.0015264232005,-6.11637033849304,-14.8996954390622));
#315=CARTESIAN_POINT('Ctrl Pts',(-3.96840625955288,-5.73203238351493,-14.5003029242608));
#316=CARTESIAN_POINT('Ctrl Pts',(-4.92955417706234,-5.45143160185319,-14.2014640355712));
#317=CARTESIAN_POINT('Ctrl Pts',(-7.66783222825198,-4.45655588995081,-13.0434994446773));
#318=CARTESIAN_POINT('Ctrl Pts',(-9.30338687290648,-3.59711096841382,-11.9098165626899));
#319=CARTESIAN_POINT('Ctrl Pts',(-11.8900933825589,-2.10243472624517,-9.3231100530375));
#320=CARTESIAN_POINT('Ctrl Pts',(-13.0362660470455,-1.34913454663919,-7.6841297617902));
#321=CARTESIAN_POINT('Ctrl Pts',(-14.2037119952212,-0.557723277314804,-4.92464140021008));
#322=CARTESIAN_POINT('Ctrl Pts',(-14.5041083319815,-0.348406202695454,-3.95509489458258));
#323=CARTESIAN_POINT('Ctrl Pts',(-14.9023366481218,-0.0694665719263412,
-1.98300190760565));
#324=CARTESIAN_POINT('Ctrl Pts',(-15.,-8.64641597089848E-16,-0.980399319140597));
#325=CARTESIAN_POINT('Ctrl Pts',(-15.,-7.28583859910259E-16,-3.88578058618805E-15));
#326=CARTESIAN_POINT('Origin',(0.,0.,0.));
#327=CARTESIAN_POINT('',(15.,6.,-1.83697019872103E-15));
#328=CARTESIAN_POINT('Origin',(0.,6.,0.));
#329=CARTESIAN_POINT('',(15.,0.,-1.83697019872103E-15));
#330=CARTESIAN_POINT('Origin',(0.,6.,0.));
#331=UNCERTAINTY_MEASURE_WITH_UNIT(LENGTH_MEASURE(0.01),#335,
'DISTANCE_ACCURACY_VALUE',
'Maximum model space distance between geometric entities at asserted c
onnectivities');
#332=UNCERTAINTY_MEASURE_WITH_UNIT(LENGTH_MEASURE(0.01),#335,
'DISTANCE_ACCURACY_VALUE',
'Maximum model space distance between geometric entities at asserted c
onnectivities');
#333=(
GEOMETRIC_REPRESENTATION_CONTEXT(3)
GLOBAL_UNCERTAINTY_ASSIGNED_CONTEXT((#331))
GLOBAL_UNIT_ASSIGNED_CONTEXT((#335,#337,#338))
REPRESENTATION_CONTEXT('','3D')
);
#334=(
GEOMETRIC_REPRESENTATION_CONTEXT(3)
GLOBAL_UNCERTAINTY_ASSIGNED_CONTEXT((#332))
GLOBAL_UNIT_ASSIGNED_CONTEXT((#335,#337,#338))
REPRESENTATION_CONTEXT('','3D')
);
#335=(
LENGTH_UNIT()
NAMED_UNIT(*)
SI_UNIT(.MILLI.,.METRE.)
);
#336=(
LENGTH_UNIT()
NAMED_UNIT(*)
SI_UNIT(.CENTI.,.METRE.)
);
#337=(
NAMED_UNIT(*)
PLANE_ANGLE_UNIT()
SI_UNIT($,.RADIAN.)
);
#338=(
NAMED_UNIT(*)
SI_UNIT($,.STERADIAN.)
SOLID_ANGLE_UNIT()
);
#339=SHAPE_DEFINITION_REPRESENTATION(#340,#341);
#340=PRODUCT_DEFINITION_SHAPE('',$,#343);
#341=SHAPE_REPRESENTATION('',(#147),#333);
#342=PRODUCT_DEFINITION_CONTEXT('part definition',#347,'design');
#343=PRODUCT_DEFINITION('41896','41896',#344,#342);
#344=PRODUCT_DEFINITION_FORMATION('',$,#349);
#345=PRODUCT_RELATED_PRODUCT_CATEGORY('41896','41896',(#349));
#346=APPLICATION_PROTOCOL_DEFINITION('international standard',
'automotive_design',2009,#347);
#347=APPLICATION_CONTEXT(
'Core Data for Automotive Mechanical Design Process');
#348=PRODUCT_CONTEXT('part definition',#347,'mechanical');
#349=PRODUCT('41896','41896',$,(#348));
#350=PRESENTATION_STYLE_ASSIGNMENT((#351));
#351=SURFACE_STYLE_USAGE(.BOTH.,#354);
#352=SURFACE_STYLE_RENDERING_WITH_PROPERTIES($,#358,(#353));
#353=SURFACE_STYLE_TRANSPARENT(0.);
#354=SURFACE_SIDE_STYLE('',(#355,#352));
#355=SURFACE_STYLE_FILL_AREA(#356);
#356=FILL_AREA_STYLE('',(#357));
#357=FILL_AREA_STYLE_COLOUR('',#358);
#358=COLOUR_RGB('',0.956862745098039,0.956862745098039,0.956862745098039);
ENDSEC;
END-ISO-10303-21;
