ISO-10303-21;
HEADER;
/* Generated by software containing ST-Developer
 * from STEP Tools, Inc. (www.steptools.com) 
 */

FILE_DESCRIPTION(
/* description */ (''),
/* implementation_level */ '2;1');

FILE_NAME(
/* name */ 
'C:\\Users\\O.Boryczka\\Desktop\\Korrigierte Zeichnungen\\Rohrverbinde
r V2A\\41914.ipt.step',
/* time_stamp */ '2022-07-18T12:56:42+02:00',
/* author */ ('Abt. Technik'),
/* organization */ (''),
/* preprocessor_version */ 'ST-DEVELOPER v18.1',
/* originating_system */ 'Autodesk Inventor 2022',
/* authorisation */ '');

FILE_SCHEMA (('AUTOMOTIVE_DESIGN { 1 0 10303 214 3 1 1 }'));
ENDSEC;

DATA;
#10=MECHANICAL_DESIGN_GEOMETRIC_PRESENTATION_REPRESENTATION('',(#13),#264);
#11=SHAPE_REPRESENTATION_RELATIONSHIP('SRR','None',#271,#12);
#12=ADVANCED_BREP_SHAPE_REPRESENTATION('',(#14),#263);
#13=STYLED_ITEM('',(#280),#14);
#14=MANIFOLD_SOLID_BREP('Volumenk\X\F6rper1',#136);
#15=FACE_BOUND('',#36,.T.);
#16=FACE_BOUND('',#39,.T.);
#17=PLANE('',#172);
#18=PLANE('',#176);
#19=CYLINDRICAL_SURFACE('',#163,19.1);
#20=CYLINDRICAL_SURFACE('',#170,19.1);
#21=CYLINDRICAL_SURFACE('',#174,21.2);
#22=CYLINDRICAL_SURFACE('',#177,18.1);
#23=FACE_OUTER_BOUND('',#31,.T.);
#24=FACE_OUTER_BOUND('',#32,.T.);
#25=FACE_OUTER_BOUND('',#33,.T.);
#26=FACE_OUTER_BOUND('',#34,.T.);
#27=FACE_OUTER_BOUND('',#35,.T.);
#28=FACE_OUTER_BOUND('',#37,.T.);
#29=FACE_OUTER_BOUND('',#38,.T.);
#30=FACE_OUTER_BOUND('',#40,.T.);
#31=EDGE_LOOP('',(#92,#93,#94,#95,#96));
#32=EDGE_LOOP('',(#97,#98,#99,#100,#101));
#33=EDGE_LOOP('',(#102,#103,#104,#105,#106,#107));
#34=EDGE_LOOP('',(#108,#109,#110,#111,#112));
#35=EDGE_LOOP('',(#113));
#36=EDGE_LOOP('',(#114));
#37=EDGE_LOOP('',(#115,#116,#117,#118));
#38=EDGE_LOOP('',(#119));
#39=EDGE_LOOP('',(#120));
#40=EDGE_LOOP('',(#121,#122,#123,#124,#125));
#41=LINE('',#231,#47);
#42=LINE('',#236,#48);
#43=LINE('',#243,#49);
#44=LINE('',#249,#50);
#45=LINE('',#257,#51);
#46=LINE('',#260,#52);
#47=VECTOR('',#186,18.6);
#48=VECTOR('',#193,19.1);
#49=VECTOR('',#200,18.6);
#50=VECTOR('',#207,19.1);
#51=VECTOR('',#218,21.2);
#52=VECTOR('',#223,18.1);
#53=CIRCLE('',#160,19.1);
#54=CIRCLE('',#161,19.1);
#55=CIRCLE('',#162,18.1);
#56=CIRCLE('',#164,19.1);
#57=CIRCLE('',#166,18.1);
#58=CIRCLE('',#167,18.1);
#59=CIRCLE('',#168,19.1);
#60=CIRCLE('',#169,19.1);
#61=CIRCLE('',#171,19.1);
#62=CIRCLE('',#173,21.2);
#63=CIRCLE('',#175,21.2);
#64=VERTEX_POINT('',#226);
#65=VERTEX_POINT('',#227);
#66=VERTEX_POINT('',#230);
#67=VERTEX_POINT('',#234);
#68=VERTEX_POINT('',#238);
#69=VERTEX_POINT('',#239);
#70=VERTEX_POINT('',#242);
#71=VERTEX_POINT('',#244);
#72=VERTEX_POINT('',#248);
#73=VERTEX_POINT('',#252);
#74=VERTEX_POINT('',#255);
#75=EDGE_CURVE('',#64,#65,#53,.T.);
#76=EDGE_CURVE('',#65,#64,#54,.T.);
#77=EDGE_CURVE('',#64,#66,#41,.T.);
#78=EDGE_CURVE('',#66,#66,#55,.T.);
#79=EDGE_CURVE('',#67,#67,#56,.T.);
#80=EDGE_CURVE('',#67,#65,#42,.T.);
#81=EDGE_CURVE('',#68,#69,#57,.T.);
#82=EDGE_CURVE('',#69,#68,#58,.T.);
#83=EDGE_CURVE('',#68,#70,#43,.T.);
#84=EDGE_CURVE('',#70,#71,#59,.T.);
#85=EDGE_CURVE('',#71,#70,#60,.T.);
#86=EDGE_CURVE('',#71,#72,#44,.T.);
#87=EDGE_CURVE('',#72,#72,#61,.T.);
#88=EDGE_CURVE('',#73,#73,#62,.T.);
#89=EDGE_CURVE('',#74,#74,#63,.T.);
#90=EDGE_CURVE('',#74,#73,#45,.T.);
#91=EDGE_CURVE('',#69,#66,#46,.T.);
#92=ORIENTED_EDGE('',*,*,#75,.T.);
#93=ORIENTED_EDGE('',*,*,#76,.T.);
#94=ORIENTED_EDGE('',*,*,#77,.T.);
#95=ORIENTED_EDGE('',*,*,#78,.F.);
#96=ORIENTED_EDGE('',*,*,#77,.F.);
#97=ORIENTED_EDGE('',*,*,#79,.F.);
#98=ORIENTED_EDGE('',*,*,#80,.T.);
#99=ORIENTED_EDGE('',*,*,#75,.F.);
#100=ORIENTED_EDGE('',*,*,#76,.F.);
#101=ORIENTED_EDGE('',*,*,#80,.F.);
#102=ORIENTED_EDGE('',*,*,#81,.T.);
#103=ORIENTED_EDGE('',*,*,#82,.T.);
#104=ORIENTED_EDGE('',*,*,#83,.T.);
#105=ORIENTED_EDGE('',*,*,#84,.T.);
#106=ORIENTED_EDGE('',*,*,#85,.T.);
#107=ORIENTED_EDGE('',*,*,#83,.F.);
#108=ORIENTED_EDGE('',*,*,#84,.F.);
#109=ORIENTED_EDGE('',*,*,#85,.F.);
#110=ORIENTED_EDGE('',*,*,#86,.T.);
#111=ORIENTED_EDGE('',*,*,#87,.F.);
#112=ORIENTED_EDGE('',*,*,#86,.F.);
#113=ORIENTED_EDGE('',*,*,#88,.F.);
#114=ORIENTED_EDGE('',*,*,#79,.T.);
#115=ORIENTED_EDGE('',*,*,#89,.F.);
#116=ORIENTED_EDGE('',*,*,#90,.T.);
#117=ORIENTED_EDGE('',*,*,#88,.T.);
#118=ORIENTED_EDGE('',*,*,#90,.F.);
#119=ORIENTED_EDGE('',*,*,#89,.T.);
#120=ORIENTED_EDGE('',*,*,#87,.T.);
#121=ORIENTED_EDGE('',*,*,#81,.F.);
#122=ORIENTED_EDGE('',*,*,#82,.F.);
#123=ORIENTED_EDGE('',*,*,#91,.T.);
#124=ORIENTED_EDGE('',*,*,#78,.T.);
#125=ORIENTED_EDGE('',*,*,#91,.F.);
#126=CONICAL_SURFACE('',#159,18.6,0.785398163397449);
#127=CONICAL_SURFACE('',#165,18.6,0.785398163397451);
#128=ADVANCED_FACE('',(#23),#126,.T.);
#129=ADVANCED_FACE('',(#24),#19,.T.);
#130=ADVANCED_FACE('',(#25),#127,.T.);
#131=ADVANCED_FACE('',(#26),#20,.T.);
#132=ADVANCED_FACE('',(#27,#15),#17,.F.);
#133=ADVANCED_FACE('',(#28),#21,.T.);
#134=ADVANCED_FACE('',(#29,#16),#18,.T.);
#135=ADVANCED_FACE('',(#30),#22,.F.);
#136=CLOSED_SHELL('',(#128,#129,#130,#131,#132,#133,#134,#135));
#137=DERIVED_UNIT_ELEMENT(#140,1.);
#138=DERIVED_UNIT_ELEMENT(#266,-3.);
#139=DIMENSIONAL_EXPONENTS(1.,0.,0.,0.,0.,0.,0.);
#140=(
CONVERSION_BASED_UNIT('gram',#142)
MASS_UNIT()
NAMED_UNIT(#139)
);
#141=(
MASS_UNIT()
NAMED_UNIT(*)
SI_UNIT(.KILO.,.GRAM.)
);
#142=MASS_MEASURE_WITH_UNIT(MASS_MEASURE(0.001),#141);
#143=DERIVED_UNIT((#137,#138));
#144=MEASURE_REPRESENTATION_ITEM('density measure',
POSITIVE_RATIO_MEASURE(8.),#143);
#145=PROPERTY_DEFINITION_REPRESENTATION(#150,#147);
#146=PROPERTY_DEFINITION_REPRESENTATION(#151,#148);
#147=REPRESENTATION('material name',(#149),#263);
#148=REPRESENTATION('density',(#144),#263);
#149=DESCRIPTIVE_REPRESENTATION_ITEM('Edelstahl AISI 304',
'Edelstahl AISI 304');
#150=PROPERTY_DEFINITION('material property','material name',#273);
#151=PROPERTY_DEFINITION('material property','density of part',#273);
#152=DATE_TIME_ROLE('creation_date');
#153=APPLIED_DATE_AND_TIME_ASSIGNMENT(#154,#152,(#273));
#154=DATE_AND_TIME(#155,#156);
#155=CALENDAR_DATE(2021,10,6);
#156=LOCAL_TIME(0,0,0.,#157);
#157=COORDINATED_UNIVERSAL_TIME_OFFSET(0,0,.BEHIND.);
#158=AXIS2_PLACEMENT_3D('placement',#224,#178,#179);
#159=AXIS2_PLACEMENT_3D('',#225,#180,#181);
#160=AXIS2_PLACEMENT_3D('',#228,#182,#183);
#161=AXIS2_PLACEMENT_3D('',#229,#184,#185);
#162=AXIS2_PLACEMENT_3D('',#232,#187,#188);
#163=AXIS2_PLACEMENT_3D('',#233,#189,#190);
#164=AXIS2_PLACEMENT_3D('',#235,#191,#192);
#165=AXIS2_PLACEMENT_3D('',#237,#194,#195);
#166=AXIS2_PLACEMENT_3D('',#240,#196,#197);
#167=AXIS2_PLACEMENT_3D('',#241,#198,#199);
#168=AXIS2_PLACEMENT_3D('',#245,#201,#202);
#169=AXIS2_PLACEMENT_3D('',#246,#203,#204);
#170=AXIS2_PLACEMENT_3D('',#247,#205,#206);
#171=AXIS2_PLACEMENT_3D('',#250,#208,#209);
#172=AXIS2_PLACEMENT_3D('',#251,#210,#211);
#173=AXIS2_PLACEMENT_3D('',#253,#212,#213);
#174=AXIS2_PLACEMENT_3D('',#254,#214,#215);
#175=AXIS2_PLACEMENT_3D('',#256,#216,#217);
#176=AXIS2_PLACEMENT_3D('',#258,#219,#220);
#177=AXIS2_PLACEMENT_3D('',#259,#221,#222);
#178=DIRECTION('axis',(0.,0.,1.));
#179=DIRECTION('refdir',(1.,0.,0.));
#180=DIRECTION('center_axis',(0.,1.,0.));
#181=DIRECTION('ref_axis',(1.,0.,0.));
#182=DIRECTION('center_axis',(0.,-1.,0.));
#183=DIRECTION('ref_axis',(1.,0.,0.));
#184=DIRECTION('center_axis',(0.,-1.,0.));
#185=DIRECTION('ref_axis',(1.,0.,0.));
#186=DIRECTION('',(0.707106781186548,-0.707106781186547,-8.65956056235494E-17));
#187=DIRECTION('center_axis',(0.,-1.,0.));
#188=DIRECTION('ref_axis',(1.,0.,0.));
#189=DIRECTION('center_axis',(0.,1.,0.));
#190=DIRECTION('ref_axis',(-1.,0.,0.));
#191=DIRECTION('center_axis',(0.,1.,0.));
#192=DIRECTION('ref_axis',(-1.,0.,0.));
#193=DIRECTION('',(0.,-1.,0.));
#194=DIRECTION('center_axis',(0.,-1.,0.));
#195=DIRECTION('ref_axis',(-1.,0.,0.));
#196=DIRECTION('center_axis',(0.,-1.,0.));
#197=DIRECTION('ref_axis',(-1.,0.,0.));
#198=DIRECTION('center_axis',(0.,-1.,0.));
#199=DIRECTION('ref_axis',(-1.,0.,0.));
#200=DIRECTION('',(0.707106781186549,-0.707106781186546,-8.65956056235495E-17));
#201=DIRECTION('center_axis',(0.,1.,0.));
#202=DIRECTION('ref_axis',(-1.,0.,0.));
#203=DIRECTION('center_axis',(0.,1.,0.));
#204=DIRECTION('ref_axis',(-1.,0.,0.));
#205=DIRECTION('center_axis',(0.,1.,0.));
#206=DIRECTION('ref_axis',(1.,0.,0.));
#207=DIRECTION('',(0.,-1.,0.));
#208=DIRECTION('center_axis',(0.,-1.,0.));
#209=DIRECTION('ref_axis',(1.,0.,0.));
#210=DIRECTION('center_axis',(0.,1.,0.));
#211=DIRECTION('ref_axis',(0.,0.,1.));
#212=DIRECTION('center_axis',(0.,1.,0.));
#213=DIRECTION('ref_axis',(1.,0.,0.));
#214=DIRECTION('center_axis',(0.,1.,0.));
#215=DIRECTION('ref_axis',(1.,0.,0.));
#216=DIRECTION('center_axis',(0.,1.,0.));
#217=DIRECTION('ref_axis',(1.,0.,0.));
#218=DIRECTION('',(0.,-1.,0.));
#219=DIRECTION('center_axis',(0.,1.,0.));
#220=DIRECTION('ref_axis',(0.,0.,1.));
#221=DIRECTION('center_axis',(0.,1.,0.));
#222=DIRECTION('ref_axis',(1.,0.,0.));
#223=DIRECTION('',(0.,-1.,0.));
#224=CARTESIAN_POINT('',(0.,0.,0.));
#225=CARTESIAN_POINT('Origin',(0.,0.5,0.));
#226=CARTESIAN_POINT('',(-19.1,1.,-2.33907538637144E-15));
#227=CARTESIAN_POINT('',(19.1,1.,-2.33907538637144E-15));
#228=CARTESIAN_POINT('Origin',(0.,1.,0.));
#229=CARTESIAN_POINT('Origin',(0.,1.,0.));
#230=CARTESIAN_POINT('',(-18.1,0.,2.21661070645671E-15));
#231=CARTESIAN_POINT('',(-18.6,0.5,2.27784304641408E-15));
#232=CARTESIAN_POINT('Origin',(0.,0.,0.));
#233=CARTESIAN_POINT('Origin',(0.,0.,0.));
#234=CARTESIAN_POINT('',(19.1,30.,-2.33907538637144E-15));
#235=CARTESIAN_POINT('Origin',(0.,30.,0.));
#236=CARTESIAN_POINT('',(19.1,0.,-2.33907538637144E-15));
#237=CARTESIAN_POINT('Origin',(0.,65.5,0.));
#238=CARTESIAN_POINT('',(18.1,66.,-2.21661070645671E-15));
#239=CARTESIAN_POINT('',(-18.1,66.,2.21661070645671E-15));
#240=CARTESIAN_POINT('Origin',(0.,66.,0.));
#241=CARTESIAN_POINT('Origin',(0.,66.,0.));
#242=CARTESIAN_POINT('',(19.1,65.,-2.33907538637144E-15));
#243=CARTESIAN_POINT('',(18.6,65.5,-2.27784304641408E-15));
#244=CARTESIAN_POINT('',(-19.1,65.,2.33907538637144E-15));
#245=CARTESIAN_POINT('Origin',(0.,65.,0.));
#246=CARTESIAN_POINT('Origin',(0.,65.,0.));
#247=CARTESIAN_POINT('Origin',(0.,36.,0.));
#248=CARTESIAN_POINT('',(-19.1,36.,2.33907538637144E-15));
#249=CARTESIAN_POINT('',(-19.1,36.,2.33907538637144E-15));
#250=CARTESIAN_POINT('Origin',(0.,36.,0.));
#251=CARTESIAN_POINT('Origin',(0.,30.,0.));
#252=CARTESIAN_POINT('',(-21.2,30.,2.59625121419239E-15));
#253=CARTESIAN_POINT('Origin',(0.,30.,0.));
#254=CARTESIAN_POINT('Origin',(0.,30.,0.));
#255=CARTESIAN_POINT('',(-21.2,36.,2.59625121419239E-15));
#256=CARTESIAN_POINT('Origin',(0.,36.,0.));
#257=CARTESIAN_POINT('',(-21.2,30.,2.59625121419239E-15));
#258=CARTESIAN_POINT('Origin',(0.,36.,0.));
#259=CARTESIAN_POINT('Origin',(0.,0.,0.));
#260=CARTESIAN_POINT('',(-18.1,0.,2.21661070645671E-15));
#261=UNCERTAINTY_MEASURE_WITH_UNIT(LENGTH_MEASURE(0.01),#265,
'DISTANCE_ACCURACY_VALUE',
'Maximum model space distance between geometric entities at asserted c
onnectivities');
#262=UNCERTAINTY_MEASURE_WITH_UNIT(LENGTH_MEASURE(0.01),#265,
'DISTANCE_ACCURACY_VALUE',
'Maximum model space distance between geometric entities at asserted c
onnectivities');
#263=(
GEOMETRIC_REPRESENTATION_CONTEXT(3)
GLOBAL_UNCERTAINTY_ASSIGNED_CONTEXT((#261))
GLOBAL_UNIT_ASSIGNED_CONTEXT((#265,#267,#268))
REPRESENTATION_CONTEXT('','3D')
);
#264=(
GEOMETRIC_REPRESENTATION_CONTEXT(3)
GLOBAL_UNCERTAINTY_ASSIGNED_CONTEXT((#262))
GLOBAL_UNIT_ASSIGNED_CONTEXT((#265,#267,#268))
REPRESENTATION_CONTEXT('','3D')
);
#265=(
LENGTH_UNIT()
NAMED_UNIT(*)
SI_UNIT(.MILLI.,.METRE.)
);
#266=(
LENGTH_UNIT()
NAMED_UNIT(*)
SI_UNIT(.CENTI.,.METRE.)
);
#267=(
NAMED_UNIT(*)
PLANE_ANGLE_UNIT()
SI_UNIT($,.RADIAN.)
);
#268=(
NAMED_UNIT(*)
SI_UNIT($,.STERADIAN.)
SOLID_ANGLE_UNIT()
);
#269=SHAPE_DEFINITION_REPRESENTATION(#270,#271);
#270=PRODUCT_DEFINITION_SHAPE('',$,#273);
#271=SHAPE_REPRESENTATION('',(#158),#263);
#272=PRODUCT_DEFINITION_CONTEXT('part definition',#277,'design');
#273=PRODUCT_DEFINITION('41914','41914',#274,#272);
#274=PRODUCT_DEFINITION_FORMATION('',$,#279);
#275=PRODUCT_RELATED_PRODUCT_CATEGORY('41914','41914',(#279));
#276=APPLICATION_PROTOCOL_DEFINITION('international standard',
'automotive_design',2009,#277);
#277=APPLICATION_CONTEXT(
'Core Data for Automotive Mechanical Design Process');
#278=PRODUCT_CONTEXT('part definition',#277,'mechanical');
#279=PRODUCT('41914','41914',$,(#278));
#280=PRESENTATION_STYLE_ASSIGNMENT((#281));
#281=SURFACE_STYLE_USAGE(.BOTH.,#284);
#282=SURFACE_STYLE_RENDERING_WITH_PROPERTIES($,#288,(#283));
#283=SURFACE_STYLE_TRANSPARENT(0.);
#284=SURFACE_SIDE_STYLE('',(#285,#282));
#285=SURFACE_STYLE_FILL_AREA(#286);
#286=FILL_AREA_STYLE('',(#287));
#287=FILL_AREA_STYLE_COLOUR('',#288);
#288=COLOUR_RGB('',0.956862745098039,0.956862745098039,0.956862745098039);
ENDSEC;
END-ISO-10303-21;
