ISO-10303-21;
HEADER;
/* Generated by software containing ST-Developer
 * from STEP Tools, Inc. (www.steptools.com) 
 */

FILE_DESCRIPTION(
/* description */ (''),
/* implementation_level */ '2;1');

FILE_NAME(
/* name */ 
'C:\\Users\\O.Boryczka\\Desktop\\Korrigierte Zeichnungen\\Stecksystem 
V2A\\41917.ipt.step',
/* time_stamp */ '2022-07-18T12:57:57+02:00',
/* author */ ('Abt. Technik'),
/* organization */ (''),
/* preprocessor_version */ 'ST-DEVELOPER v18.1',
/* originating_system */ 'Autodesk Inventor 2022',
/* authorisation */ '');

FILE_SCHEMA (('AUTOMOTIVE_DESIGN { 1 0 10303 214 3 1 1 }'));
ENDSEC;

DATA;
#10=MECHANICAL_DESIGN_GEOMETRIC_PRESENTATION_REPRESENTATION('',(#13),#558);
#11=SHAPE_REPRESENTATION_RELATIONSHIP('SRR','None',#565,#12);
#12=ADVANCED_BREP_SHAPE_REPRESENTATION('',(#14),#557);
#13=STYLED_ITEM('',(#574),#14);
#14=MANIFOLD_SOLID_BREP('Volumenk\X\F6rper1',#299);
#15=FACE_BOUND('',#65,.T.);
#16=FACE_BOUND('',#68,.T.);
#17=FACE_BOUND('',#70,.T.);
#18=FACE_BOUND('',#73,.T.);
#19=FACE_BOUND('',#76,.T.);
#20=FACE_BOUND('',#79,.T.);
#21=FACE_BOUND('',#82,.T.);
#22=FACE_BOUND('',#85,.T.);
#23=FACE_BOUND('',#87,.T.);
#24=PLANE('',#337);
#25=PLANE('',#341);
#26=PLANE('',#342);
#27=PLANE('',#346);
#28=PLANE('',#350);
#29=PLANE('',#354);
#30=PLANE('',#361);
#31=PLANE('',#365);
#32=PLANE('',#366);
#33=ELLIPSE('',#332,27.1529003975634,19.2);
#34=ELLIPSE('',#334,27.1529003975634,19.2);
#35=ELLIPSE('',#335,27.1529003975634,19.2);
#36=ELLIPSE('',#336,27.1529003975634,19.2);
#37=ELLIPSE('',#357,29.9813275223096,21.2);
#38=ELLIPSE('',#358,29.9813275223096,21.2);
#39=ELLIPSE('',#359,29.9813275223096,21.2);
#40=ELLIPSE('',#360,29.9813275223096,21.2);
#41=FACE_OUTER_BOUND('',#60,.T.);
#42=FACE_OUTER_BOUND('',#61,.T.);
#43=FACE_OUTER_BOUND('',#62,.T.);
#44=FACE_OUTER_BOUND('',#63,.T.);
#45=FACE_OUTER_BOUND('',#64,.T.);
#46=FACE_OUTER_BOUND('',#66,.T.);
#47=FACE_OUTER_BOUND('',#67,.T.);
#48=FACE_OUTER_BOUND('',#69,.T.);
#49=FACE_OUTER_BOUND('',#71,.T.);
#50=FACE_OUTER_BOUND('',#72,.T.);
#51=FACE_OUTER_BOUND('',#74,.T.);
#52=FACE_OUTER_BOUND('',#75,.T.);
#53=FACE_OUTER_BOUND('',#77,.T.);
#54=FACE_OUTER_BOUND('',#78,.T.);
#55=FACE_OUTER_BOUND('',#80,.T.);
#56=FACE_OUTER_BOUND('',#81,.T.);
#57=FACE_OUTER_BOUND('',#83,.T.);
#58=FACE_OUTER_BOUND('',#84,.T.);
#59=FACE_OUTER_BOUND('',#86,.T.);
#60=EDGE_LOOP('',(#194,#195,#196,#197));
#61=EDGE_LOOP('',(#198,#199,#200,#201));
#62=EDGE_LOOP('',(#202,#203,#204,#205));
#63=EDGE_LOOP('',(#206,#207,#208,#209,#210,#211,#212));
#64=EDGE_LOOP('',(#213));
#65=EDGE_LOOP('',(#214));
#66=EDGE_LOOP('',(#215,#216,#217,#218,#219,#220,#221,#222,#223,#224));
#67=EDGE_LOOP('',(#225));
#68=EDGE_LOOP('',(#226));
#69=EDGE_LOOP('',(#227));
#70=EDGE_LOOP('',(#228));
#71=EDGE_LOOP('',(#229,#230,#231,#232));
#72=EDGE_LOOP('',(#233));
#73=EDGE_LOOP('',(#234));
#74=EDGE_LOOP('',(#235,#236,#237,#238));
#75=EDGE_LOOP('',(#239));
#76=EDGE_LOOP('',(#240));
#77=EDGE_LOOP('',(#241,#242,#243,#244));
#78=EDGE_LOOP('',(#245));
#79=EDGE_LOOP('',(#246));
#80=EDGE_LOOP('',(#247,#248,#249,#250,#251,#252,#253));
#81=EDGE_LOOP('',(#254));
#82=EDGE_LOOP('',(#255));
#83=EDGE_LOOP('',(#256,#257,#258,#259,#260,#261,#262,#263,#264,#265));
#84=EDGE_LOOP('',(#266));
#85=EDGE_LOOP('',(#267));
#86=EDGE_LOOP('',(#268));
#87=EDGE_LOOP('',(#269));
#88=LINE('',#476,#100);
#89=LINE('',#482,#101);
#90=LINE('',#488,#102);
#91=LINE('',#495,#103);
#92=LINE('',#506,#104);
#93=LINE('',#508,#105);
#94=LINE('',#516,#106);
#95=LINE('',#523,#107);
#96=LINE('',#530,#108);
#97=LINE('',#537,#109);
#98=LINE('',#549,#110);
#99=LINE('',#551,#111);
#100=VECTOR('',#373,19.1);
#101=VECTOR('',#380,19.1);
#102=VECTOR('',#387,19.1);
#103=VECTOR('',#394,21.2);
#104=VECTOR('',#409,21.2);
#105=VECTOR('',#410,21.2);
#106=VECTOR('',#421,19.1);
#107=VECTOR('',#430,19.1);
#108=VECTOR('',#439,19.1);
#109=VECTOR('',#448,21.2);
#110=VECTOR('',#463,21.2);
#111=VECTOR('',#464,21.2);
#112=CIRCLE('',#323,17.1);
#113=CIRCLE('',#324,17.1);
#114=CIRCLE('',#326,17.1);
#115=CIRCLE('',#327,17.1);
#116=CIRCLE('',#329,17.1);
#117=CIRCLE('',#330,17.1);
#118=CIRCLE('',#333,19.2);
#119=CIRCLE('',#339,19.2);
#120=CIRCLE('',#340,19.2);
#121=CIRCLE('',#344,19.1);
#122=CIRCLE('',#345,19.1);
#123=CIRCLE('',#348,19.1);
#124=CIRCLE('',#349,19.1);
#125=CIRCLE('',#352,19.1);
#126=CIRCLE('',#353,19.1);
#127=CIRCLE('',#356,21.2);
#128=CIRCLE('',#363,21.2);
#129=CIRCLE('',#364,21.2);
#130=VERTEX_POINT('',#473);
#131=VERTEX_POINT('',#475);
#132=VERTEX_POINT('',#479);
#133=VERTEX_POINT('',#481);
#134=VERTEX_POINT('',#485);
#135=VERTEX_POINT('',#487);
#136=VERTEX_POINT('',#491);
#137=VERTEX_POINT('',#492);
#138=VERTEX_POINT('',#494);
#139=VERTEX_POINT('',#497);
#140=VERTEX_POINT('',#499);
#141=VERTEX_POINT('',#504);
#142=VERTEX_POINT('',#507);
#143=VERTEX_POINT('',#513);
#144=VERTEX_POINT('',#515);
#145=VERTEX_POINT('',#520);
#146=VERTEX_POINT('',#522);
#147=VERTEX_POINT('',#527);
#148=VERTEX_POINT('',#529);
#149=VERTEX_POINT('',#534);
#150=VERTEX_POINT('',#536);
#151=VERTEX_POINT('',#538);
#152=VERTEX_POINT('',#540);
#153=VERTEX_POINT('',#542);
#154=VERTEX_POINT('',#547);
#155=VERTEX_POINT('',#550);
#156=EDGE_CURVE('',#130,#130,#112,.T.);
#157=EDGE_CURVE('',#130,#131,#88,.T.);
#158=EDGE_CURVE('',#131,#131,#113,.T.);
#159=EDGE_CURVE('',#132,#132,#114,.F.);
#160=EDGE_CURVE('',#132,#133,#89,.T.);
#161=EDGE_CURVE('',#133,#133,#115,.T.);
#162=EDGE_CURVE('',#134,#134,#116,.T.);
#163=EDGE_CURVE('',#134,#135,#90,.T.);
#164=EDGE_CURVE('',#135,#135,#117,.T.);
#165=EDGE_CURVE('',#136,#137,#33,.F.);
#166=EDGE_CURVE('',#137,#138,#91,.T.);
#167=EDGE_CURVE('',#138,#138,#118,.F.);
#168=EDGE_CURVE('',#137,#139,#34,.F.);
#169=EDGE_CURVE('',#139,#140,#35,.F.);
#170=EDGE_CURVE('',#140,#136,#36,.F.);
#171=EDGE_CURVE('',#141,#141,#119,.F.);
#172=EDGE_CURVE('',#141,#137,#92,.T.);
#173=EDGE_CURVE('',#140,#142,#93,.T.);
#174=EDGE_CURVE('',#142,#142,#120,.F.);
#175=EDGE_CURVE('',#143,#143,#121,.T.);
#176=EDGE_CURVE('',#143,#144,#94,.T.);
#177=EDGE_CURVE('',#144,#144,#122,.T.);
#178=EDGE_CURVE('',#145,#145,#123,.T.);
#179=EDGE_CURVE('',#145,#146,#95,.T.);
#180=EDGE_CURVE('',#146,#146,#124,.T.);
#181=EDGE_CURVE('',#147,#147,#125,.T.);
#182=EDGE_CURVE('',#147,#148,#96,.T.);
#183=EDGE_CURVE('',#148,#148,#126,.T.);
#184=EDGE_CURVE('',#149,#149,#127,.T.);
#185=EDGE_CURVE('',#149,#150,#97,.T.);
#186=EDGE_CURVE('',#151,#150,#37,.T.);
#187=EDGE_CURVE('',#152,#151,#38,.T.);
#188=EDGE_CURVE('',#153,#152,#39,.T.);
#189=EDGE_CURVE('',#150,#153,#40,.T.);
#190=EDGE_CURVE('',#154,#154,#128,.T.);
#191=EDGE_CURVE('',#154,#152,#98,.T.);
#192=EDGE_CURVE('',#150,#155,#99,.T.);
#193=EDGE_CURVE('',#155,#155,#129,.T.);
#194=ORIENTED_EDGE('',*,*,#156,.T.);
#195=ORIENTED_EDGE('',*,*,#157,.T.);
#196=ORIENTED_EDGE('',*,*,#158,.F.);
#197=ORIENTED_EDGE('',*,*,#157,.F.);
#198=ORIENTED_EDGE('',*,*,#159,.T.);
#199=ORIENTED_EDGE('',*,*,#160,.T.);
#200=ORIENTED_EDGE('',*,*,#161,.F.);
#201=ORIENTED_EDGE('',*,*,#160,.F.);
#202=ORIENTED_EDGE('',*,*,#162,.T.);
#203=ORIENTED_EDGE('',*,*,#163,.T.);
#204=ORIENTED_EDGE('',*,*,#164,.F.);
#205=ORIENTED_EDGE('',*,*,#163,.F.);
#206=ORIENTED_EDGE('',*,*,#165,.T.);
#207=ORIENTED_EDGE('',*,*,#166,.T.);
#208=ORIENTED_EDGE('',*,*,#167,.T.);
#209=ORIENTED_EDGE('',*,*,#166,.F.);
#210=ORIENTED_EDGE('',*,*,#168,.T.);
#211=ORIENTED_EDGE('',*,*,#169,.T.);
#212=ORIENTED_EDGE('',*,*,#170,.T.);
#213=ORIENTED_EDGE('',*,*,#167,.F.);
#214=ORIENTED_EDGE('',*,*,#162,.F.);
#215=ORIENTED_EDGE('',*,*,#171,.F.);
#216=ORIENTED_EDGE('',*,*,#172,.T.);
#217=ORIENTED_EDGE('',*,*,#165,.F.);
#218=ORIENTED_EDGE('',*,*,#170,.F.);
#219=ORIENTED_EDGE('',*,*,#173,.T.);
#220=ORIENTED_EDGE('',*,*,#174,.T.);
#221=ORIENTED_EDGE('',*,*,#173,.F.);
#222=ORIENTED_EDGE('',*,*,#169,.F.);
#223=ORIENTED_EDGE('',*,*,#168,.F.);
#224=ORIENTED_EDGE('',*,*,#172,.F.);
#225=ORIENTED_EDGE('',*,*,#174,.F.);
#226=ORIENTED_EDGE('',*,*,#156,.F.);
#227=ORIENTED_EDGE('',*,*,#171,.T.);
#228=ORIENTED_EDGE('',*,*,#159,.F.);
#229=ORIENTED_EDGE('',*,*,#175,.F.);
#230=ORIENTED_EDGE('',*,*,#176,.T.);
#231=ORIENTED_EDGE('',*,*,#177,.F.);
#232=ORIENTED_EDGE('',*,*,#176,.F.);
#233=ORIENTED_EDGE('',*,*,#175,.T.);
#234=ORIENTED_EDGE('',*,*,#158,.T.);
#235=ORIENTED_EDGE('',*,*,#178,.F.);
#236=ORIENTED_EDGE('',*,*,#179,.T.);
#237=ORIENTED_EDGE('',*,*,#180,.F.);
#238=ORIENTED_EDGE('',*,*,#179,.F.);
#239=ORIENTED_EDGE('',*,*,#178,.T.);
#240=ORIENTED_EDGE('',*,*,#161,.T.);
#241=ORIENTED_EDGE('',*,*,#181,.F.);
#242=ORIENTED_EDGE('',*,*,#182,.T.);
#243=ORIENTED_EDGE('',*,*,#183,.F.);
#244=ORIENTED_EDGE('',*,*,#182,.F.);
#245=ORIENTED_EDGE('',*,*,#181,.T.);
#246=ORIENTED_EDGE('',*,*,#164,.T.);
#247=ORIENTED_EDGE('',*,*,#184,.F.);
#248=ORIENTED_EDGE('',*,*,#185,.T.);
#249=ORIENTED_EDGE('',*,*,#186,.F.);
#250=ORIENTED_EDGE('',*,*,#187,.F.);
#251=ORIENTED_EDGE('',*,*,#188,.F.);
#252=ORIENTED_EDGE('',*,*,#189,.F.);
#253=ORIENTED_EDGE('',*,*,#185,.F.);
#254=ORIENTED_EDGE('',*,*,#184,.T.);
#255=ORIENTED_EDGE('',*,*,#183,.T.);
#256=ORIENTED_EDGE('',*,*,#190,.F.);
#257=ORIENTED_EDGE('',*,*,#191,.T.);
#258=ORIENTED_EDGE('',*,*,#187,.T.);
#259=ORIENTED_EDGE('',*,*,#186,.T.);
#260=ORIENTED_EDGE('',*,*,#192,.T.);
#261=ORIENTED_EDGE('',*,*,#193,.T.);
#262=ORIENTED_EDGE('',*,*,#192,.F.);
#263=ORIENTED_EDGE('',*,*,#189,.T.);
#264=ORIENTED_EDGE('',*,*,#188,.T.);
#265=ORIENTED_EDGE('',*,*,#191,.F.);
#266=ORIENTED_EDGE('',*,*,#190,.T.);
#267=ORIENTED_EDGE('',*,*,#177,.T.);
#268=ORIENTED_EDGE('',*,*,#193,.F.);
#269=ORIENTED_EDGE('',*,*,#180,.T.);
#270=CYLINDRICAL_SURFACE('',#322,17.1);
#271=CYLINDRICAL_SURFACE('',#325,17.1);
#272=CYLINDRICAL_SURFACE('',#328,17.1);
#273=CYLINDRICAL_SURFACE('',#331,19.2);
#274=CYLINDRICAL_SURFACE('',#338,19.2);
#275=CYLINDRICAL_SURFACE('',#343,19.1);
#276=CYLINDRICAL_SURFACE('',#347,19.1);
#277=CYLINDRICAL_SURFACE('',#351,19.1);
#278=CYLINDRICAL_SURFACE('',#355,21.2);
#279=CYLINDRICAL_SURFACE('',#362,21.2);
#280=ADVANCED_FACE('',(#41),#270,.F.);
#281=ADVANCED_FACE('',(#42),#271,.F.);
#282=ADVANCED_FACE('',(#43),#272,.F.);
#283=ADVANCED_FACE('',(#44),#273,.F.);
#284=ADVANCED_FACE('',(#45,#15),#24,.F.);
#285=ADVANCED_FACE('',(#46),#274,.F.);
#286=ADVANCED_FACE('',(#47,#16),#25,.F.);
#287=ADVANCED_FACE('',(#48,#17),#26,.T.);
#288=ADVANCED_FACE('',(#49),#275,.T.);
#289=ADVANCED_FACE('',(#50,#18),#27,.T.);
#290=ADVANCED_FACE('',(#51),#276,.T.);
#291=ADVANCED_FACE('',(#52,#19),#28,.T.);
#292=ADVANCED_FACE('',(#53),#277,.T.);
#293=ADVANCED_FACE('',(#54,#20),#29,.T.);
#294=ADVANCED_FACE('',(#55),#278,.T.);
#295=ADVANCED_FACE('',(#56,#21),#30,.T.);
#296=ADVANCED_FACE('',(#57),#279,.T.);
#297=ADVANCED_FACE('',(#58,#22),#31,.T.);
#298=ADVANCED_FACE('',(#59,#23),#32,.F.);
#299=CLOSED_SHELL('',(#280,#281,#282,#283,#284,#285,#286,#287,#288,#289,
#290,#291,#292,#293,#294,#295,#296,#297,#298));
#300=DERIVED_UNIT_ELEMENT(#303,1.);
#301=DERIVED_UNIT_ELEMENT(#560,-3.);
#302=DIMENSIONAL_EXPONENTS(1.,0.,0.,0.,0.,0.,0.);
#303=(
CONVERSION_BASED_UNIT('gram',#305)
MASS_UNIT()
NAMED_UNIT(#302)
);
#304=(
MASS_UNIT()
NAMED_UNIT(*)
SI_UNIT(.KILO.,.GRAM.)
);
#305=MASS_MEASURE_WITH_UNIT(MASS_MEASURE(0.001),#304);
#306=DERIVED_UNIT((#300,#301));
#307=MEASURE_REPRESENTATION_ITEM('density measure',
POSITIVE_RATIO_MEASURE(8.),#306);
#308=PROPERTY_DEFINITION_REPRESENTATION(#313,#310);
#309=PROPERTY_DEFINITION_REPRESENTATION(#314,#311);
#310=REPRESENTATION('material name',(#312),#557);
#311=REPRESENTATION('density',(#307),#557);
#312=DESCRIPTIVE_REPRESENTATION_ITEM('Edelstahl AISI 304',
'Edelstahl AISI 304');
#313=PROPERTY_DEFINITION('material property','material name',#567);
#314=PROPERTY_DEFINITION('material property','density of part',#567);
#315=DATE_TIME_ROLE('creation_date');
#316=APPLIED_DATE_AND_TIME_ASSIGNMENT(#317,#315,(#567));
#317=DATE_AND_TIME(#318,#319);
#318=CALENDAR_DATE(2021,10,6);
#319=LOCAL_TIME(0,0,0.,#320);
#320=COORDINATED_UNIVERSAL_TIME_OFFSET(0,0,.BEHIND.);
#321=AXIS2_PLACEMENT_3D('placement',#471,#367,#368);
#322=AXIS2_PLACEMENT_3D('',#472,#369,#370);
#323=AXIS2_PLACEMENT_3D('',#474,#371,#372);
#324=AXIS2_PLACEMENT_3D('',#477,#374,#375);
#325=AXIS2_PLACEMENT_3D('',#478,#376,#377);
#326=AXIS2_PLACEMENT_3D('',#480,#378,#379);
#327=AXIS2_PLACEMENT_3D('',#483,#381,#382);
#328=AXIS2_PLACEMENT_3D('',#484,#383,#384);
#329=AXIS2_PLACEMENT_3D('',#486,#385,#386);
#330=AXIS2_PLACEMENT_3D('',#489,#388,#389);
#331=AXIS2_PLACEMENT_3D('',#490,#390,#391);
#332=AXIS2_PLACEMENT_3D('',#493,#392,#393);
#333=AXIS2_PLACEMENT_3D('',#496,#395,#396);
#334=AXIS2_PLACEMENT_3D('',#498,#397,#398);
#335=AXIS2_PLACEMENT_3D('',#500,#399,#400);
#336=AXIS2_PLACEMENT_3D('',#501,#401,#402);
#337=AXIS2_PLACEMENT_3D('',#502,#403,#404);
#338=AXIS2_PLACEMENT_3D('',#503,#405,#406);
#339=AXIS2_PLACEMENT_3D('',#505,#407,#408);
#340=AXIS2_PLACEMENT_3D('',#509,#411,#412);
#341=AXIS2_PLACEMENT_3D('',#510,#413,#414);
#342=AXIS2_PLACEMENT_3D('',#511,#415,#416);
#343=AXIS2_PLACEMENT_3D('',#512,#417,#418);
#344=AXIS2_PLACEMENT_3D('',#514,#419,#420);
#345=AXIS2_PLACEMENT_3D('',#517,#422,#423);
#346=AXIS2_PLACEMENT_3D('',#518,#424,#425);
#347=AXIS2_PLACEMENT_3D('',#519,#426,#427);
#348=AXIS2_PLACEMENT_3D('',#521,#428,#429);
#349=AXIS2_PLACEMENT_3D('',#524,#431,#432);
#350=AXIS2_PLACEMENT_3D('',#525,#433,#434);
#351=AXIS2_PLACEMENT_3D('',#526,#435,#436);
#352=AXIS2_PLACEMENT_3D('',#528,#437,#438);
#353=AXIS2_PLACEMENT_3D('',#531,#440,#441);
#354=AXIS2_PLACEMENT_3D('',#532,#442,#443);
#355=AXIS2_PLACEMENT_3D('',#533,#444,#445);
#356=AXIS2_PLACEMENT_3D('',#535,#446,#447);
#357=AXIS2_PLACEMENT_3D('',#539,#449,#450);
#358=AXIS2_PLACEMENT_3D('',#541,#451,#452);
#359=AXIS2_PLACEMENT_3D('',#543,#453,#454);
#360=AXIS2_PLACEMENT_3D('',#544,#455,#456);
#361=AXIS2_PLACEMENT_3D('',#545,#457,#458);
#362=AXIS2_PLACEMENT_3D('',#546,#459,#460);
#363=AXIS2_PLACEMENT_3D('',#548,#461,#462);
#364=AXIS2_PLACEMENT_3D('',#552,#465,#466);
#365=AXIS2_PLACEMENT_3D('',#553,#467,#468);
#366=AXIS2_PLACEMENT_3D('',#554,#469,#470);
#367=DIRECTION('axis',(0.,0.,1.));
#368=DIRECTION('refdir',(1.,0.,0.));
#369=DIRECTION('center_axis',(0.,1.,0.));
#370=DIRECTION('ref_axis',(1.,0.,0.));
#371=DIRECTION('center_axis',(0.,-1.,0.));
#372=DIRECTION('ref_axis',(1.,0.,0.));
#373=DIRECTION('',(0.,1.,0.));
#374=DIRECTION('center_axis',(0.,-1.,0.));
#375=DIRECTION('ref_axis',(1.,0.,0.));
#376=DIRECTION('center_axis',(0.,-1.,0.));
#377=DIRECTION('ref_axis',(1.,0.,0.));
#378=DIRECTION('center_axis',(0.,-1.,0.));
#379=DIRECTION('ref_axis',(1.,0.,0.));
#380=DIRECTION('',(0.,-1.,0.));
#381=DIRECTION('center_axis',(0.,1.,0.));
#382=DIRECTION('ref_axis',(1.,0.,0.));
#383=DIRECTION('center_axis',(1.,0.,0.));
#384=DIRECTION('ref_axis',(0.,0.,-1.));
#385=DIRECTION('center_axis',(-1.,0.,0.));
#386=DIRECTION('ref_axis',(0.,0.,-1.));
#387=DIRECTION('',(1.,0.,0.));
#388=DIRECTION('center_axis',(-1.,0.,0.));
#389=DIRECTION('ref_axis',(0.,0.,-1.));
#390=DIRECTION('center_axis',(1.,0.,0.));
#391=DIRECTION('ref_axis',(0.,1.,0.));
#392=DIRECTION('center_axis',(0.707106781186547,0.707106781186548,0.));
#393=DIRECTION('ref_axis',(-0.707106781186548,0.707106781186547,0.));
#394=DIRECTION('',(1.,0.,0.));
#395=DIRECTION('center_axis',(-1.,0.,0.));
#396=DIRECTION('ref_axis',(0.,1.,0.));
#397=DIRECTION('center_axis',(0.707106781186547,0.707106781186548,0.));
#398=DIRECTION('ref_axis',(-0.707106781186548,0.707106781186547,0.));
#399=DIRECTION('center_axis',(0.707106781186547,-0.707106781186548,0.));
#400=DIRECTION('ref_axis',(0.707106781186548,0.707106781186547,0.));
#401=DIRECTION('center_axis',(0.707106781186547,-0.707106781186548,0.));
#402=DIRECTION('ref_axis',(0.707106781186548,0.707106781186547,0.));
#403=DIRECTION('center_axis',(1.,0.,0.));
#404=DIRECTION('ref_axis',(0.,0.,-1.));
#405=DIRECTION('center_axis',(0.,1.,0.));
#406=DIRECTION('ref_axis',(-1.,0.,0.));
#407=DIRECTION('center_axis',(0.,-1.,0.));
#408=DIRECTION('ref_axis',(-1.,0.,0.));
#409=DIRECTION('',(0.,1.,0.));
#410=DIRECTION('',(0.,1.,0.));
#411=DIRECTION('center_axis',(0.,-1.,0.));
#412=DIRECTION('ref_axis',(-1.,0.,0.));
#413=DIRECTION('center_axis',(0.,1.,0.));
#414=DIRECTION('ref_axis',(0.,0.,1.));
#415=DIRECTION('center_axis',(0.,1.,0.));
#416=DIRECTION('ref_axis',(0.,0.,1.));
#417=DIRECTION('center_axis',(0.,1.,0.));
#418=DIRECTION('ref_axis',(1.,0.,0.));
#419=DIRECTION('center_axis',(0.,1.,0.));
#420=DIRECTION('ref_axis',(1.,0.,0.));
#421=DIRECTION('',(0.,-1.,0.));
#422=DIRECTION('center_axis',(0.,-1.,0.));
#423=DIRECTION('ref_axis',(1.,0.,0.));
#424=DIRECTION('center_axis',(0.,1.,0.));
#425=DIRECTION('ref_axis',(0.,0.,1.));
#426=DIRECTION('center_axis',(0.,-1.,0.));
#427=DIRECTION('ref_axis',(1.,0.,0.));
#428=DIRECTION('center_axis',(0.,-1.,0.));
#429=DIRECTION('ref_axis',(1.,0.,0.));
#430=DIRECTION('',(0.,1.,0.));
#431=DIRECTION('center_axis',(0.,1.,0.));
#432=DIRECTION('ref_axis',(1.,0.,0.));
#433=DIRECTION('center_axis',(0.,-1.,0.));
#434=DIRECTION('ref_axis',(0.,0.,-1.));
#435=DIRECTION('center_axis',(1.,0.,0.));
#436=DIRECTION('ref_axis',(0.,0.,-1.));
#437=DIRECTION('center_axis',(1.,0.,0.));
#438=DIRECTION('ref_axis',(0.,0.,-1.));
#439=DIRECTION('',(-1.,0.,0.));
#440=DIRECTION('center_axis',(-1.,0.,0.));
#441=DIRECTION('ref_axis',(0.,0.,-1.));
#442=DIRECTION('center_axis',(1.,0.,0.));
#443=DIRECTION('ref_axis',(0.,0.,-1.));
#444=DIRECTION('center_axis',(1.,0.,0.));
#445=DIRECTION('ref_axis',(0.,1.,0.));
#446=DIRECTION('center_axis',(1.,0.,0.));
#447=DIRECTION('ref_axis',(0.,1.,0.));
#448=DIRECTION('',(-1.,0.,0.));
#449=DIRECTION('center_axis',(-0.707106781186548,-0.707106781186548,0.));
#450=DIRECTION('ref_axis',(-0.707106781186547,0.707106781186547,0.));
#451=DIRECTION('center_axis',(-0.707106781186548,0.707106781186548,0.));
#452=DIRECTION('ref_axis',(0.707106781186547,0.707106781186547,0.));
#453=DIRECTION('center_axis',(-0.707106781186548,0.707106781186548,0.));
#454=DIRECTION('ref_axis',(0.707106781186547,0.707106781186547,0.));
#455=DIRECTION('center_axis',(-0.707106781186548,-0.707106781186548,0.));
#456=DIRECTION('ref_axis',(-0.707106781186547,0.707106781186547,0.));
#457=DIRECTION('center_axis',(1.,0.,0.));
#458=DIRECTION('ref_axis',(0.,0.,-1.));
#459=DIRECTION('center_axis',(0.,1.,0.));
#460=DIRECTION('ref_axis',(-1.,0.,0.));
#461=DIRECTION('center_axis',(0.,1.,0.));
#462=DIRECTION('ref_axis',(-1.,0.,0.));
#463=DIRECTION('',(0.,-1.,0.));
#464=DIRECTION('',(0.,-1.,0.));
#465=DIRECTION('center_axis',(0.,1.,0.));
#466=DIRECTION('ref_axis',(-1.,0.,0.));
#467=DIRECTION('center_axis',(0.,1.,0.));
#468=DIRECTION('ref_axis',(0.,0.,1.));
#469=DIRECTION('center_axis',(0.,1.,0.));
#470=DIRECTION('ref_axis',(0.,0.,1.));
#471=CARTESIAN_POINT('',(0.,0.,0.));
#472=CARTESIAN_POINT('Origin',(0.,85.,0.));
#473=CARTESIAN_POINT('',(-17.1,83.,-2.09414602654197E-15));
#474=CARTESIAN_POINT('Origin',(0.,83.,0.));
#475=CARTESIAN_POINT('',(-17.1,110.,-2.09414602654197E-15));
#476=CARTESIAN_POINT('',(-17.1,85.,2.09414602654197E-15));
#477=CARTESIAN_POINT('Origin',(0.,110.,0.));
#478=CARTESIAN_POINT('Origin',(0.,0.,0.));
#479=CARTESIAN_POINT('',(-17.1,2.,-2.09414602654197E-15));
#480=CARTESIAN_POINT('Origin',(0.,2.,0.));
#481=CARTESIAN_POINT('',(-17.1,-25.,2.09414602654197E-15));
#482=CARTESIAN_POINT('',(-17.1,0.,-2.09414602654197E-15));
#483=CARTESIAN_POINT('Origin',(0.,-25.,0.));
#484=CARTESIAN_POINT('Origin',(28.8,42.5,0.));
#485=CARTESIAN_POINT('',(26.8,42.5,17.1));
#486=CARTESIAN_POINT('Origin',(26.8,42.5,0.));
#487=CARTESIAN_POINT('',(53.8,42.5,17.1));
#488=CARTESIAN_POINT('',(28.8,42.5,17.1));
#489=CARTESIAN_POINT('Origin',(53.8,42.5,0.));
#490=CARTESIAN_POINT('Origin',(0.,42.5,0.));
#491=CARTESIAN_POINT('',(0.,42.5,-19.2));
#492=CARTESIAN_POINT('',(19.2,23.3,-2.35132185436292E-15));
#493=CARTESIAN_POINT('Origin',(0.,42.5,0.));
#494=CARTESIAN_POINT('',(26.8,23.3,2.35132185436292E-15));
#495=CARTESIAN_POINT('',(0.,23.3,-2.35132185436292E-15));
#496=CARTESIAN_POINT('Origin',(26.8,42.5,0.));
#497=CARTESIAN_POINT('',(0.,42.5,19.2));
#498=CARTESIAN_POINT('Origin',(0.,42.5,0.));
#499=CARTESIAN_POINT('',(19.2,61.7,-2.35132185436292E-15));
#500=CARTESIAN_POINT('Origin',(0.,42.5,0.));
#501=CARTESIAN_POINT('Origin',(0.,42.5,0.));
#502=CARTESIAN_POINT('Origin',(26.8,42.5,0.));
#503=CARTESIAN_POINT('Origin',(0.,0.,0.));
#504=CARTESIAN_POINT('',(19.2,2.,2.35132185436292E-15));
#505=CARTESIAN_POINT('Origin',(0.,2.,0.));
#506=CARTESIAN_POINT('',(19.2,0.,-2.35132185436292E-15));
#507=CARTESIAN_POINT('',(19.2,83.,2.35132185436292E-15));
#508=CARTESIAN_POINT('',(19.2,0.,-2.35132185436292E-15));
#509=CARTESIAN_POINT('Origin',(0.,83.,0.));
#510=CARTESIAN_POINT('Origin',(0.,83.,0.));
#511=CARTESIAN_POINT('Origin',(0.,2.,0.));
#512=CARTESIAN_POINT('Origin',(0.,85.,0.));
#513=CARTESIAN_POINT('',(-19.1,110.,2.33907538637144E-15));
#514=CARTESIAN_POINT('Origin',(0.,110.,0.));
#515=CARTESIAN_POINT('',(-19.1,85.,2.33907538637144E-15));
#516=CARTESIAN_POINT('',(-19.1,85.,2.33907538637144E-15));
#517=CARTESIAN_POINT('Origin',(0.,85.,0.));
#518=CARTESIAN_POINT('Origin',(0.,110.,0.));
#519=CARTESIAN_POINT('Origin',(0.,0.,0.));
#520=CARTESIAN_POINT('',(-19.1,-25.,-2.33907538637144E-15));
#521=CARTESIAN_POINT('Origin',(0.,-25.,0.));
#522=CARTESIAN_POINT('',(-19.1,0.,-2.33907538637144E-15));
#523=CARTESIAN_POINT('',(-19.1,0.,-2.33907538637144E-15));
#524=CARTESIAN_POINT('Origin',(0.,0.,0.));
#525=CARTESIAN_POINT('Origin',(0.,-25.,0.));
#526=CARTESIAN_POINT('Origin',(28.8,42.5,0.));
#527=CARTESIAN_POINT('',(53.8,42.5,19.1));
#528=CARTESIAN_POINT('Origin',(53.8,42.5,0.));
#529=CARTESIAN_POINT('',(28.8,42.5,19.1));
#530=CARTESIAN_POINT('',(28.8,42.5,19.1));
#531=CARTESIAN_POINT('Origin',(28.8,42.5,0.));
#532=CARTESIAN_POINT('Origin',(53.8,42.5,0.));
#533=CARTESIAN_POINT('Origin',(0.,42.5,0.));
#534=CARTESIAN_POINT('',(28.8,21.3,-2.59625121419239E-15));
#535=CARTESIAN_POINT('Origin',(28.8,42.5,0.));
#536=CARTESIAN_POINT('',(21.2,21.3,-2.59625121419239E-15));
#537=CARTESIAN_POINT('',(0.,21.3,-2.59625121419239E-15));
#538=CARTESIAN_POINT('',(0.,42.5,-21.2));
#539=CARTESIAN_POINT('Origin',(0.,42.5,0.));
#540=CARTESIAN_POINT('',(21.2,63.7,-2.59625121419239E-15));
#541=CARTESIAN_POINT('Origin',(0.,42.5,0.));
#542=CARTESIAN_POINT('',(0.,42.5,21.2));
#543=CARTESIAN_POINT('Origin',(0.,42.5,0.));
#544=CARTESIAN_POINT('Origin',(0.,42.5,0.));
#545=CARTESIAN_POINT('Origin',(28.8,42.5,0.));
#546=CARTESIAN_POINT('Origin',(0.,0.,0.));
#547=CARTESIAN_POINT('',(21.2,85.,-2.59625121419239E-15));
#548=CARTESIAN_POINT('Origin',(0.,85.,0.));
#549=CARTESIAN_POINT('',(21.2,0.,-2.59625121419239E-15));
#550=CARTESIAN_POINT('',(21.2,0.,-2.59625121419239E-15));
#551=CARTESIAN_POINT('',(21.2,0.,-2.59625121419239E-15));
#552=CARTESIAN_POINT('Origin',(0.,0.,0.));
#553=CARTESIAN_POINT('Origin',(0.,85.,0.));
#554=CARTESIAN_POINT('Origin',(0.,0.,0.));
#555=UNCERTAINTY_MEASURE_WITH_UNIT(LENGTH_MEASURE(0.01),#559,
'DISTANCE_ACCURACY_VALUE',
'Maximum model space distance between geometric entities at asserted c
onnectivities');
#556=UNCERTAINTY_MEASURE_WITH_UNIT(LENGTH_MEASURE(0.01),#559,
'DISTANCE_ACCURACY_VALUE',
'Maximum model space distance between geometric entities at asserted c
onnectivities');
#557=(
GEOMETRIC_REPRESENTATION_CONTEXT(3)
GLOBAL_UNCERTAINTY_ASSIGNED_CONTEXT((#555))
GLOBAL_UNIT_ASSIGNED_CONTEXT((#559,#561,#562))
REPRESENTATION_CONTEXT('','3D')
);
#558=(
GEOMETRIC_REPRESENTATION_CONTEXT(3)
GLOBAL_UNCERTAINTY_ASSIGNED_CONTEXT((#556))
GLOBAL_UNIT_ASSIGNED_CONTEXT((#559,#561,#562))
REPRESENTATION_CONTEXT('','3D')
);
#559=(
LENGTH_UNIT()
NAMED_UNIT(*)
SI_UNIT(.MILLI.,.METRE.)
);
#560=(
LENGTH_UNIT()
NAMED_UNIT(*)
SI_UNIT(.CENTI.,.METRE.)
);
#561=(
NAMED_UNIT(*)
PLANE_ANGLE_UNIT()
SI_UNIT($,.RADIAN.)
);
#562=(
NAMED_UNIT(*)
SI_UNIT($,.STERADIAN.)
SOLID_ANGLE_UNIT()
);
#563=SHAPE_DEFINITION_REPRESENTATION(#564,#565);
#564=PRODUCT_DEFINITION_SHAPE('',$,#567);
#565=SHAPE_REPRESENTATION('',(#321),#557);
#566=PRODUCT_DEFINITION_CONTEXT('part definition',#571,'design');
#567=PRODUCT_DEFINITION('41917','41917',#568,#566);
#568=PRODUCT_DEFINITION_FORMATION('',$,#573);
#569=PRODUCT_RELATED_PRODUCT_CATEGORY('41917','41917',(#573));
#570=APPLICATION_PROTOCOL_DEFINITION('international standard',
'automotive_design',2009,#571);
#571=APPLICATION_CONTEXT(
'Core Data for Automotive Mechanical Design Process');
#572=PRODUCT_CONTEXT('part definition',#571,'mechanical');
#573=PRODUCT('41917','41917',$,(#572));
#574=PRESENTATION_STYLE_ASSIGNMENT((#575));
#575=SURFACE_STYLE_USAGE(.BOTH.,#578);
#576=SURFACE_STYLE_RENDERING_WITH_PROPERTIES($,#582,(#577));
#577=SURFACE_STYLE_TRANSPARENT(0.);
#578=SURFACE_SIDE_STYLE('',(#579,#576));
#579=SURFACE_STYLE_FILL_AREA(#580);
#580=FILL_AREA_STYLE('',(#581));
#581=FILL_AREA_STYLE_COLOUR('',#582);
#582=COLOUR_RGB('',0.956862745098039,0.956862745098039,0.956862745098039);
ENDSEC;
END-ISO-10303-21;
