ISO-10303-21;
HEADER;
/* Generated by software containing ST-Developer
 * from STEP Tools, Inc. (www.steptools.com) 
 */

FILE_DESCRIPTION(
/* description */ (''),
/* implementation_level */ '2;1');

FILE_NAME(
/* name */ 
'C:\\Users\\O.Boryczka\\Desktop\\Korrigierte Zeichnungen\\Stecksystem 
V2A\\41920.ipt.step',
/* time_stamp */ '2022-07-18T12:57:58+02:00',
/* author */ ('Abt. Technik'),
/* organization */ (''),
/* preprocessor_version */ 'ST-DEVELOPER v18.1',
/* originating_system */ 'Autodesk Inventor 2022',
/* authorisation */ '');

FILE_SCHEMA (('AUTOMOTIVE_DESIGN { 1 0 10303 214 3 1 1 }'));
ENDSEC;

DATA;
#10=MECHANICAL_DESIGN_GEOMETRIC_PRESENTATION_REPRESENTATION('',(#13),#384);
#11=SHAPE_REPRESENTATION_RELATIONSHIP('SRR','None',#391,#12);
#12=ADVANCED_BREP_SHAPE_REPRESENTATION('',(#14),#383);
#13=STYLED_ITEM('',(#400),#14);
#14=MANIFOLD_SOLID_BREP('Volumenk\X\F6rper1',#203);
#15=FACE_BOUND('',#49,.T.);
#16=FACE_BOUND('',#52,.T.);
#17=FACE_BOUND('',#55,.T.);
#18=FACE_BOUND('',#58,.T.);
#19=FACE_BOUND('',#61,.T.);
#20=FACE_BOUND('',#64,.T.);
#21=PLANE('',#236);
#22=PLANE('',#239);
#23=PLANE('',#243);
#24=PLANE('',#247);
#25=PLANE('',#252);
#26=PLANE('',#255);
#27=ELLIPSE('',#233,27.1529003975634,19.2);
#28=ELLIPSE('',#234,27.1529003975634,19.2);
#29=ELLIPSE('',#250,29.9813275223096,21.2);
#30=ELLIPSE('',#251,29.9813275223096,21.2);
#31=FACE_OUTER_BOUND('',#45,.T.);
#32=FACE_OUTER_BOUND('',#46,.T.);
#33=FACE_OUTER_BOUND('',#47,.T.);
#34=FACE_OUTER_BOUND('',#48,.T.);
#35=FACE_OUTER_BOUND('',#50,.T.);
#36=FACE_OUTER_BOUND('',#51,.T.);
#37=FACE_OUTER_BOUND('',#53,.T.);
#38=FACE_OUTER_BOUND('',#54,.T.);
#39=FACE_OUTER_BOUND('',#56,.T.);
#40=FACE_OUTER_BOUND('',#57,.T.);
#41=FACE_OUTER_BOUND('',#59,.T.);
#42=FACE_OUTER_BOUND('',#60,.T.);
#43=FACE_OUTER_BOUND('',#62,.T.);
#44=FACE_OUTER_BOUND('',#63,.T.);
#45=EDGE_LOOP('',(#133,#134,#135,#136));
#46=EDGE_LOOP('',(#137,#138,#139,#140));
#47=EDGE_LOOP('',(#141,#142,#143,#144,#145));
#48=EDGE_LOOP('',(#146));
#49=EDGE_LOOP('',(#147));
#50=EDGE_LOOP('',(#148,#149,#150,#151,#152));
#51=EDGE_LOOP('',(#153));
#52=EDGE_LOOP('',(#154));
#53=EDGE_LOOP('',(#155,#156,#157,#158));
#54=EDGE_LOOP('',(#159));
#55=EDGE_LOOP('',(#160));
#56=EDGE_LOOP('',(#161,#162,#163,#164));
#57=EDGE_LOOP('',(#165));
#58=EDGE_LOOP('',(#166));
#59=EDGE_LOOP('',(#167,#168,#169,#170,#171));
#60=EDGE_LOOP('',(#172));
#61=EDGE_LOOP('',(#173));
#62=EDGE_LOOP('',(#174,#175,#176,#177,#178));
#63=EDGE_LOOP('',(#179));
#64=EDGE_LOOP('',(#180));
#65=LINE('',#331,#73);
#66=LINE('',#337,#74);
#67=LINE('',#345,#75);
#68=LINE('',#351,#76);
#69=LINE('',#357,#77);
#70=LINE('',#364,#78);
#71=LINE('',#371,#79);
#72=LINE('',#378,#80);
#73=VECTOR('',#262,18.7);
#74=VECTOR('',#269,18.7);
#75=VECTOR('',#278,21.2);
#76=VECTOR('',#287,21.2);
#77=VECTOR('',#294,18.7);
#78=VECTOR('',#303,18.7);
#79=VECTOR('',#312,21.2);
#80=VECTOR('',#321,21.2);
#81=CIRCLE('',#227,16.7);
#82=CIRCLE('',#228,16.7);
#83=CIRCLE('',#230,16.7);
#84=CIRCLE('',#231,16.7);
#85=CIRCLE('',#235,19.2);
#86=CIRCLE('',#238,19.2);
#87=CIRCLE('',#241,18.7);
#88=CIRCLE('',#242,18.7);
#89=CIRCLE('',#245,18.7);
#90=CIRCLE('',#246,18.7);
#91=CIRCLE('',#249,21.2);
#92=CIRCLE('',#254,21.2);
#93=VERTEX_POINT('',#328);
#94=VERTEX_POINT('',#330);
#95=VERTEX_POINT('',#334);
#96=VERTEX_POINT('',#336);
#97=VERTEX_POINT('',#340);
#98=VERTEX_POINT('',#341);
#99=VERTEX_POINT('',#344);
#100=VERTEX_POINT('',#349);
#101=VERTEX_POINT('',#354);
#102=VERTEX_POINT('',#356);
#103=VERTEX_POINT('',#361);
#104=VERTEX_POINT('',#363);
#105=VERTEX_POINT('',#368);
#106=VERTEX_POINT('',#370);
#107=VERTEX_POINT('',#372);
#108=VERTEX_POINT('',#377);
#109=EDGE_CURVE('',#93,#93,#81,.T.);
#110=EDGE_CURVE('',#93,#94,#65,.T.);
#111=EDGE_CURVE('',#94,#94,#82,.T.);
#112=EDGE_CURVE('',#95,#95,#83,.F.);
#113=EDGE_CURVE('',#95,#96,#66,.T.);
#114=EDGE_CURVE('',#96,#96,#84,.T.);
#115=EDGE_CURVE('',#97,#98,#27,.F.);
#116=EDGE_CURVE('',#98,#97,#28,.F.);
#117=EDGE_CURVE('',#97,#99,#67,.T.);
#118=EDGE_CURVE('',#99,#99,#85,.F.);
#119=EDGE_CURVE('',#100,#100,#86,.F.);
#120=EDGE_CURVE('',#100,#97,#68,.T.);
#121=EDGE_CURVE('',#101,#101,#87,.T.);
#122=EDGE_CURVE('',#101,#102,#69,.T.);
#123=EDGE_CURVE('',#102,#102,#88,.T.);
#124=EDGE_CURVE('',#103,#103,#89,.T.);
#125=EDGE_CURVE('',#103,#104,#70,.T.);
#126=EDGE_CURVE('',#104,#104,#90,.T.);
#127=EDGE_CURVE('',#105,#105,#91,.T.);
#128=EDGE_CURVE('',#105,#106,#71,.T.);
#129=EDGE_CURVE('',#107,#106,#29,.T.);
#130=EDGE_CURVE('',#106,#107,#30,.T.);
#131=EDGE_CURVE('',#106,#108,#72,.T.);
#132=EDGE_CURVE('',#108,#108,#92,.T.);
#133=ORIENTED_EDGE('',*,*,#109,.T.);
#134=ORIENTED_EDGE('',*,*,#110,.T.);
#135=ORIENTED_EDGE('',*,*,#111,.F.);
#136=ORIENTED_EDGE('',*,*,#110,.F.);
#137=ORIENTED_EDGE('',*,*,#112,.T.);
#138=ORIENTED_EDGE('',*,*,#113,.T.);
#139=ORIENTED_EDGE('',*,*,#114,.F.);
#140=ORIENTED_EDGE('',*,*,#113,.F.);
#141=ORIENTED_EDGE('',*,*,#115,.T.);
#142=ORIENTED_EDGE('',*,*,#116,.T.);
#143=ORIENTED_EDGE('',*,*,#117,.T.);
#144=ORIENTED_EDGE('',*,*,#118,.T.);
#145=ORIENTED_EDGE('',*,*,#117,.F.);
#146=ORIENTED_EDGE('',*,*,#118,.F.);
#147=ORIENTED_EDGE('',*,*,#109,.F.);
#148=ORIENTED_EDGE('',*,*,#119,.F.);
#149=ORIENTED_EDGE('',*,*,#120,.T.);
#150=ORIENTED_EDGE('',*,*,#116,.F.);
#151=ORIENTED_EDGE('',*,*,#115,.F.);
#152=ORIENTED_EDGE('',*,*,#120,.F.);
#153=ORIENTED_EDGE('',*,*,#119,.T.);
#154=ORIENTED_EDGE('',*,*,#112,.F.);
#155=ORIENTED_EDGE('',*,*,#121,.F.);
#156=ORIENTED_EDGE('',*,*,#122,.T.);
#157=ORIENTED_EDGE('',*,*,#123,.F.);
#158=ORIENTED_EDGE('',*,*,#122,.F.);
#159=ORIENTED_EDGE('',*,*,#121,.T.);
#160=ORIENTED_EDGE('',*,*,#111,.T.);
#161=ORIENTED_EDGE('',*,*,#124,.F.);
#162=ORIENTED_EDGE('',*,*,#125,.T.);
#163=ORIENTED_EDGE('',*,*,#126,.F.);
#164=ORIENTED_EDGE('',*,*,#125,.F.);
#165=ORIENTED_EDGE('',*,*,#124,.T.);
#166=ORIENTED_EDGE('',*,*,#114,.T.);
#167=ORIENTED_EDGE('',*,*,#127,.F.);
#168=ORIENTED_EDGE('',*,*,#128,.T.);
#169=ORIENTED_EDGE('',*,*,#129,.F.);
#170=ORIENTED_EDGE('',*,*,#130,.F.);
#171=ORIENTED_EDGE('',*,*,#128,.F.);
#172=ORIENTED_EDGE('',*,*,#127,.T.);
#173=ORIENTED_EDGE('',*,*,#123,.T.);
#174=ORIENTED_EDGE('',*,*,#129,.T.);
#175=ORIENTED_EDGE('',*,*,#131,.T.);
#176=ORIENTED_EDGE('',*,*,#132,.T.);
#177=ORIENTED_EDGE('',*,*,#131,.F.);
#178=ORIENTED_EDGE('',*,*,#130,.T.);
#179=ORIENTED_EDGE('',*,*,#132,.F.);
#180=ORIENTED_EDGE('',*,*,#126,.T.);
#181=CYLINDRICAL_SURFACE('',#226,16.7);
#182=CYLINDRICAL_SURFACE('',#229,16.7);
#183=CYLINDRICAL_SURFACE('',#232,19.2);
#184=CYLINDRICAL_SURFACE('',#237,19.2);
#185=CYLINDRICAL_SURFACE('',#240,18.7);
#186=CYLINDRICAL_SURFACE('',#244,18.7);
#187=CYLINDRICAL_SURFACE('',#248,21.2);
#188=CYLINDRICAL_SURFACE('',#253,21.2);
#189=ADVANCED_FACE('',(#31),#181,.F.);
#190=ADVANCED_FACE('',(#32),#182,.F.);
#191=ADVANCED_FACE('',(#33),#183,.F.);
#192=ADVANCED_FACE('',(#34,#15),#21,.F.);
#193=ADVANCED_FACE('',(#35),#184,.F.);
#194=ADVANCED_FACE('',(#36,#16),#22,.T.);
#195=ADVANCED_FACE('',(#37),#185,.T.);
#196=ADVANCED_FACE('',(#38,#17),#23,.T.);
#197=ADVANCED_FACE('',(#39),#186,.T.);
#198=ADVANCED_FACE('',(#40,#18),#24,.T.);
#199=ADVANCED_FACE('',(#41),#187,.T.);
#200=ADVANCED_FACE('',(#42,#19),#25,.T.);
#201=ADVANCED_FACE('',(#43),#188,.T.);
#202=ADVANCED_FACE('',(#44,#20),#26,.F.);
#203=CLOSED_SHELL('',(#189,#190,#191,#192,#193,#194,#195,#196,#197,#198,
#199,#200,#201,#202));
#204=DERIVED_UNIT_ELEMENT(#207,1.);
#205=DERIVED_UNIT_ELEMENT(#386,-3.);
#206=DIMENSIONAL_EXPONENTS(1.,0.,0.,0.,0.,0.,0.);
#207=(
CONVERSION_BASED_UNIT('gram',#209)
MASS_UNIT()
NAMED_UNIT(#206)
);
#208=(
MASS_UNIT()
NAMED_UNIT(*)
SI_UNIT(.KILO.,.GRAM.)
);
#209=MASS_MEASURE_WITH_UNIT(MASS_MEASURE(0.001),#208);
#210=DERIVED_UNIT((#204,#205));
#211=MEASURE_REPRESENTATION_ITEM('density measure',
POSITIVE_RATIO_MEASURE(8.),#210);
#212=PROPERTY_DEFINITION_REPRESENTATION(#217,#214);
#213=PROPERTY_DEFINITION_REPRESENTATION(#218,#215);
#214=REPRESENTATION('material name',(#216),#383);
#215=REPRESENTATION('density',(#211),#383);
#216=DESCRIPTIVE_REPRESENTATION_ITEM('Edelstahl AISI 304',
'Edelstahl AISI 304');
#217=PROPERTY_DEFINITION('material property','material name',#393);
#218=PROPERTY_DEFINITION('material property','density of part',#393);
#219=DATE_TIME_ROLE('creation_date');
#220=APPLIED_DATE_AND_TIME_ASSIGNMENT(#221,#219,(#393));
#221=DATE_AND_TIME(#222,#223);
#222=CALENDAR_DATE(2021,10,6);
#223=LOCAL_TIME(0,0,0.,#224);
#224=COORDINATED_UNIVERSAL_TIME_OFFSET(0,0,.BEHIND.);
#225=AXIS2_PLACEMENT_3D('placement',#326,#256,#257);
#226=AXIS2_PLACEMENT_3D('',#327,#258,#259);
#227=AXIS2_PLACEMENT_3D('',#329,#260,#261);
#228=AXIS2_PLACEMENT_3D('',#332,#263,#264);
#229=AXIS2_PLACEMENT_3D('',#333,#265,#266);
#230=AXIS2_PLACEMENT_3D('',#335,#267,#268);
#231=AXIS2_PLACEMENT_3D('',#338,#270,#271);
#232=AXIS2_PLACEMENT_3D('',#339,#272,#273);
#233=AXIS2_PLACEMENT_3D('',#342,#274,#275);
#234=AXIS2_PLACEMENT_3D('',#343,#276,#277);
#235=AXIS2_PLACEMENT_3D('',#346,#279,#280);
#236=AXIS2_PLACEMENT_3D('',#347,#281,#282);
#237=AXIS2_PLACEMENT_3D('',#348,#283,#284);
#238=AXIS2_PLACEMENT_3D('',#350,#285,#286);
#239=AXIS2_PLACEMENT_3D('',#352,#288,#289);
#240=AXIS2_PLACEMENT_3D('',#353,#290,#291);
#241=AXIS2_PLACEMENT_3D('',#355,#292,#293);
#242=AXIS2_PLACEMENT_3D('',#358,#295,#296);
#243=AXIS2_PLACEMENT_3D('',#359,#297,#298);
#244=AXIS2_PLACEMENT_3D('',#360,#299,#300);
#245=AXIS2_PLACEMENT_3D('',#362,#301,#302);
#246=AXIS2_PLACEMENT_3D('',#365,#304,#305);
#247=AXIS2_PLACEMENT_3D('',#366,#306,#307);
#248=AXIS2_PLACEMENT_3D('',#367,#308,#309);
#249=AXIS2_PLACEMENT_3D('',#369,#310,#311);
#250=AXIS2_PLACEMENT_3D('',#373,#313,#314);
#251=AXIS2_PLACEMENT_3D('',#374,#315,#316);
#252=AXIS2_PLACEMENT_3D('',#375,#317,#318);
#253=AXIS2_PLACEMENT_3D('',#376,#319,#320);
#254=AXIS2_PLACEMENT_3D('',#379,#322,#323);
#255=AXIS2_PLACEMENT_3D('',#380,#324,#325);
#256=DIRECTION('axis',(0.,0.,1.));
#257=DIRECTION('refdir',(1.,0.,0.));
#258=DIRECTION('center_axis',(0.,-1.77635683940025E-16,-1.));
#259=DIRECTION('ref_axis',(-1.,0.,0.));
#260=DIRECTION('center_axis',(0.,1.35393051783556E-16,1.));
#261=DIRECTION('ref_axis',(-1.,0.,0.));
#262=DIRECTION('',(0.,-1.77635683940025E-16,-1.));
#263=DIRECTION('center_axis',(0.,1.35393051783556E-16,1.));
#264=DIRECTION('ref_axis',(-1.,0.,0.));
#265=DIRECTION('center_axis',(0.,-1.,0.));
#266=DIRECTION('ref_axis',(1.,0.,0.));
#267=DIRECTION('center_axis',(0.,-1.,0.));
#268=DIRECTION('ref_axis',(1.,0.,0.));
#269=DIRECTION('',(0.,-1.,0.));
#270=DIRECTION('center_axis',(0.,1.,0.));
#271=DIRECTION('ref_axis',(1.,0.,0.));
#272=DIRECTION('center_axis',(0.,-1.35393051783556E-16,-1.));
#273=DIRECTION('ref_axis',(-1.,0.,0.));
#274=DIRECTION('center_axis',(0.,0.707106781186548,-0.707106781186548));
#275=DIRECTION('ref_axis',(0.,0.707106781186547,0.707106781186548));
#276=DIRECTION('center_axis',(0.,0.707106781186548,-0.707106781186548));
#277=DIRECTION('ref_axis',(0.,0.707106781186547,0.707106781186548));
#278=DIRECTION('',(0.,-1.35393051783556E-16,-1.));
#279=DIRECTION('center_axis',(0.,1.35393051783556E-16,1.));
#280=DIRECTION('ref_axis',(-1.,0.,0.));
#281=DIRECTION('center_axis',(0.,-1.35393051783556E-16,-1.));
#282=DIRECTION('ref_axis',(0.,1.,-1.35393051783556E-16));
#283=DIRECTION('center_axis',(0.,1.,0.));
#284=DIRECTION('ref_axis',(-1.,0.,0.));
#285=DIRECTION('center_axis',(0.,-1.,0.));
#286=DIRECTION('ref_axis',(-1.,0.,0.));
#287=DIRECTION('',(0.,1.,0.));
#288=DIRECTION('center_axis',(0.,1.,0.));
#289=DIRECTION('ref_axis',(0.,0.,1.));
#290=DIRECTION('center_axis',(0.,-1.77635683940025E-16,-1.));
#291=DIRECTION('ref_axis',(-1.,0.,0.));
#292=DIRECTION('center_axis',(0.,-1.35393051783556E-16,-1.));
#293=DIRECTION('ref_axis',(-1.,0.,0.));
#294=DIRECTION('',(0.,1.77635683940025E-16,1.));
#295=DIRECTION('center_axis',(0.,1.35393051783556E-16,1.));
#296=DIRECTION('ref_axis',(-1.,0.,0.));
#297=DIRECTION('center_axis',(0.,-1.35393051783556E-16,-1.));
#298=DIRECTION('ref_axis',(-1.,0.,0.));
#299=DIRECTION('center_axis',(0.,-1.,0.));
#300=DIRECTION('ref_axis',(1.,0.,0.));
#301=DIRECTION('center_axis',(0.,-1.,0.));
#302=DIRECTION('ref_axis',(1.,0.,0.));
#303=DIRECTION('',(0.,1.,0.));
#304=DIRECTION('center_axis',(0.,1.,0.));
#305=DIRECTION('ref_axis',(1.,0.,0.));
#306=DIRECTION('center_axis',(0.,-1.,0.));
#307=DIRECTION('ref_axis',(0.,0.,-1.));
#308=DIRECTION('center_axis',(0.,-1.35393051783556E-16,-1.));
#309=DIRECTION('ref_axis',(-1.,0.,0.));
#310=DIRECTION('center_axis',(0.,-1.35393051783556E-16,-1.));
#311=DIRECTION('ref_axis',(-1.,0.,0.));
#312=DIRECTION('',(0.,1.35393051783556E-16,1.));
#313=DIRECTION('center_axis',(0.,-0.707106781186547,0.707106781186548));
#314=DIRECTION('ref_axis',(0.,0.707106781186548,0.707106781186547));
#315=DIRECTION('center_axis',(0.,-0.707106781186547,0.707106781186548));
#316=DIRECTION('ref_axis',(0.,-0.707106781186548,-0.707106781186547));
#317=DIRECTION('center_axis',(0.,-1.35393051783556E-16,-1.));
#318=DIRECTION('ref_axis',(0.,1.,-1.35393051783556E-16));
#319=DIRECTION('center_axis',(0.,1.,0.));
#320=DIRECTION('ref_axis',(-1.,0.,0.));
#321=DIRECTION('',(0.,-1.,0.));
#322=DIRECTION('center_axis',(0.,1.,0.));
#323=DIRECTION('ref_axis',(-1.,0.,0.));
#324=DIRECTION('center_axis',(0.,1.,0.));
#325=DIRECTION('ref_axis',(0.,0.,1.));
#326=CARTESIAN_POINT('',(0.,0.,0.));
#327=CARTESIAN_POINT('Origin',(0.,32.8,-32.8));
#328=CARTESIAN_POINT('',(16.7,32.8,-30.8));
#329=CARTESIAN_POINT('Origin',(0.,32.8,-30.8));
#330=CARTESIAN_POINT('',(16.7,32.8,-57.8));
#331=CARTESIAN_POINT('',(16.7,32.8,-32.8));
#332=CARTESIAN_POINT('Origin',(0.,32.8,-57.8));
#333=CARTESIAN_POINT('Origin',(0.,0.,0.));
#334=CARTESIAN_POINT('',(-16.7,2.,-2.04516015457608E-15));
#335=CARTESIAN_POINT('Origin',(0.,2.,0.));
#336=CARTESIAN_POINT('',(-16.7,-25.,2.04516015457608E-15));
#337=CARTESIAN_POINT('',(-16.7,0.,-2.04516015457608E-15));
#338=CARTESIAN_POINT('Origin',(0.,-25.,0.));
#339=CARTESIAN_POINT('Origin',(0.,32.8,0.));
#340=CARTESIAN_POINT('',(19.2,32.8,0.));
#341=CARTESIAN_POINT('',(-19.2,32.8,0.));
#342=CARTESIAN_POINT('Origin',(0.,32.8,0.));
#343=CARTESIAN_POINT('Origin',(0.,32.8,0.));
#344=CARTESIAN_POINT('',(19.2,32.8,-30.8));
#345=CARTESIAN_POINT('',(19.2,32.8,3.18352641587565E-31));
#346=CARTESIAN_POINT('Origin',(0.,32.8,-30.8));
#347=CARTESIAN_POINT('Origin',(0.,32.8,-30.8));
#348=CARTESIAN_POINT('Origin',(0.,0.,0.));
#349=CARTESIAN_POINT('',(19.2,2.,2.35132185436292E-15));
#350=CARTESIAN_POINT('Origin',(0.,2.,0.));
#351=CARTESIAN_POINT('',(19.2,0.,-2.35132185436292E-15));
#352=CARTESIAN_POINT('Origin',(0.,2.,0.));
#353=CARTESIAN_POINT('Origin',(0.,32.8,-32.8));
#354=CARTESIAN_POINT('',(18.7,32.8,-57.8));
#355=CARTESIAN_POINT('Origin',(0.,32.8,-57.8));
#356=CARTESIAN_POINT('',(18.7,32.8,-32.8));
#357=CARTESIAN_POINT('',(18.7,32.8,-32.8));
#358=CARTESIAN_POINT('Origin',(0.,32.8,-32.8));
#359=CARTESIAN_POINT('Origin',(0.,32.8,-57.8));
#360=CARTESIAN_POINT('Origin',(0.,0.,0.));
#361=CARTESIAN_POINT('',(-18.7,-25.,-2.29008951440555E-15));
#362=CARTESIAN_POINT('Origin',(0.,-25.,0.));
#363=CARTESIAN_POINT('',(-18.7,0.,-2.29008951440555E-15));
#364=CARTESIAN_POINT('',(-18.7,0.,-2.29008951440555E-15));
#365=CARTESIAN_POINT('Origin',(0.,0.,0.));
#366=CARTESIAN_POINT('Origin',(0.,-25.,0.));
#367=CARTESIAN_POINT('Origin',(0.,32.8,0.));
#368=CARTESIAN_POINT('',(21.2,32.8,-32.8));
#369=CARTESIAN_POINT('Origin',(0.,32.8,-32.8));
#370=CARTESIAN_POINT('',(21.2,32.8,0.));
#371=CARTESIAN_POINT('',(21.2,32.8,3.5151437508627E-31));
#372=CARTESIAN_POINT('',(-21.2,32.8,0.));
#373=CARTESIAN_POINT('Origin',(0.,32.8,0.));
#374=CARTESIAN_POINT('Origin',(0.,32.8,-1.33226762955019E-14));
#375=CARTESIAN_POINT('Origin',(0.,32.8,-32.8));
#376=CARTESIAN_POINT('Origin',(0.,0.,0.));
#377=CARTESIAN_POINT('',(21.2,0.,-2.59625121419239E-15));
#378=CARTESIAN_POINT('',(21.2,0.,-2.59625121419239E-15));
#379=CARTESIAN_POINT('Origin',(0.,0.,0.));
#380=CARTESIAN_POINT('Origin',(0.,0.,0.));
#381=UNCERTAINTY_MEASURE_WITH_UNIT(LENGTH_MEASURE(0.01),#385,
'DISTANCE_ACCURACY_VALUE',
'Maximum model space distance between geometric entities at asserted c
onnectivities');
#382=UNCERTAINTY_MEASURE_WITH_UNIT(LENGTH_MEASURE(0.01),#385,
'DISTANCE_ACCURACY_VALUE',
'Maximum model space distance between geometric entities at asserted c
onnectivities');
#383=(
GEOMETRIC_REPRESENTATION_CONTEXT(3)
GLOBAL_UNCERTAINTY_ASSIGNED_CONTEXT((#381))
GLOBAL_UNIT_ASSIGNED_CONTEXT((#385,#387,#388))
REPRESENTATION_CONTEXT('','3D')
);
#384=(
GEOMETRIC_REPRESENTATION_CONTEXT(3)
GLOBAL_UNCERTAINTY_ASSIGNED_CONTEXT((#382))
GLOBAL_UNIT_ASSIGNED_CONTEXT((#385,#387,#388))
REPRESENTATION_CONTEXT('','3D')
);
#385=(
LENGTH_UNIT()
NAMED_UNIT(*)
SI_UNIT(.MILLI.,.METRE.)
);
#386=(
LENGTH_UNIT()
NAMED_UNIT(*)
SI_UNIT(.CENTI.,.METRE.)
);
#387=(
NAMED_UNIT(*)
PLANE_ANGLE_UNIT()
SI_UNIT($,.RADIAN.)
);
#388=(
NAMED_UNIT(*)
SI_UNIT($,.STERADIAN.)
SOLID_ANGLE_UNIT()
);
#389=SHAPE_DEFINITION_REPRESENTATION(#390,#391);
#390=PRODUCT_DEFINITION_SHAPE('',$,#393);
#391=SHAPE_REPRESENTATION('',(#225),#383);
#392=PRODUCT_DEFINITION_CONTEXT('part definition',#397,'design');
#393=PRODUCT_DEFINITION('41920','41920',#394,#392);
#394=PRODUCT_DEFINITION_FORMATION('',$,#399);
#395=PRODUCT_RELATED_PRODUCT_CATEGORY('41920','41920',(#399));
#396=APPLICATION_PROTOCOL_DEFINITION('international standard',
'automotive_design',2009,#397);
#397=APPLICATION_CONTEXT(
'Core Data for Automotive Mechanical Design Process');
#398=PRODUCT_CONTEXT('part definition',#397,'mechanical');
#399=PRODUCT('41920','41920',$,(#398));
#400=PRESENTATION_STYLE_ASSIGNMENT((#401));
#401=SURFACE_STYLE_USAGE(.BOTH.,#404);
#402=SURFACE_STYLE_RENDERING_WITH_PROPERTIES($,#408,(#403));
#403=SURFACE_STYLE_TRANSPARENT(0.);
#404=SURFACE_SIDE_STYLE('',(#405,#402));
#405=SURFACE_STYLE_FILL_AREA(#406);
#406=FILL_AREA_STYLE('',(#407));
#407=FILL_AREA_STYLE_COLOUR('',#408);
#408=COLOUR_RGB('',0.956862745098039,0.956862745098039,0.956862745098039);
ENDSEC;
END-ISO-10303-21;
