ISO-10303-21;
HEADER;
/* Generated by software containing ST-Developer
 * from STEP Tools, Inc. (www.steptools.com) 
 */

FILE_DESCRIPTION(
/* description */ (''),
/* implementation_level */ '2;1');

FILE_NAME(
/* name */ 
'C:\\Users\\O.Boryczka\\Desktop\\Korrigierte Zeichnungen\\Sattelanschl
\X\FCsse V2A\\41925.ipt.step',
/* time_stamp */ '2022-07-18T12:57:44+02:00',
/* author */ ('Abt. Technik'),
/* organization */ (''),
/* preprocessor_version */ 'ST-DEVELOPER v18.1',
/* originating_system */ 'Autodesk Inventor 2022',
/* authorisation */ '');

FILE_SCHEMA (('AUTOMOTIVE_DESIGN { 1 0 10303 214 3 1 1 }'));
ENDSEC;

DATA;
#10=MECHANICAL_DESIGN_GEOMETRIC_PRESENTATION_REPRESENTATION('',(#13),#609);
#11=SHAPE_REPRESENTATION_RELATIONSHIP('SRR','None',#616,#12);
#12=ADVANCED_BREP_SHAPE_REPRESENTATION('',(#14),#608);
#13=STYLED_ITEM('',(#625),#14);
#14=MANIFOLD_SOLID_BREP('Volumenk\X\F6rper1',#326);
#15=ELLIPSE('',#369,29.9813275223096,21.2);
#16=ELLIPSE('',#371,29.9813275223096,21.2);
#17=ELLIPSE('',#373,29.9813275223096,21.2);
#18=ELLIPSE('',#375,29.9813275223096,21.2);
#19=ELLIPSE('',#376,29.9813275223096,21.2);
#20=FACE_BOUND('',#79,.T.);
#21=FACE_BOUND('',#88,.T.);
#22=FACE_BOUND('',#90,.T.);
#23=FACE_BOUND('',#92,.T.);
#24=FACE_BOUND('',#96,.T.);
#25=B_SPLINE_CURVE_WITH_KNOTS('',3,(#514,#515,#516,#517,#518,#519,#520,
#521),.UNSPECIFIED.,.F.,.F.,(4,2,2,4),(8.99654691813569,9.36178163167335,
9.72701634521102,10.0630401408511),.UNSPECIFIED.);
#26=B_SPLINE_CURVE_WITH_KNOTS('',3,(#527,#528,#529,#530,#531,#532,#533,
#534),.UNSPECIFIED.,.F.,.F.,(4,2,2,4),(7.93005369542029,8.26607749106036,
8.63131220459803,8.99654691813569),.UNSPECIFIED.);
#27=B_SPLINE_CURVE_WITH_KNOTS('',3,(#551,#552,#553,#554,#555,#556,#557,
#558),.UNSPECIFIED.,.F.,.F.,(4,2,2,4),(1.9323557499965,2.26837954563657,
2.63361425917423,2.9988489727119),.UNSPECIFIED.);
#28=B_SPLINE_CURVE_WITH_KNOTS('',3,(#561,#562,#563,#564,#565,#566,#567,
#568),.UNSPECIFIED.,.F.,.F.,(4,2,2,4),(2.9988489727119,3.36408368624956,
3.72931839978723,4.06534219542729),.UNSPECIFIED.);
#29=CIRCLE('',#351,4.25);
#30=CIRCLE('',#352,4.25);
#31=CIRCLE('',#355,4.25);
#32=CIRCLE('',#356,4.25);
#33=CIRCLE('',#358,18.2);
#34=CIRCLE('',#360,18.2);
#35=CIRCLE('',#362,18.2);
#36=CIRCLE('',#363,18.2);
#37=CIRCLE('',#374,21.2);
#38=CIRCLE('',#379,19.2);
#39=CIRCLE('',#381,18.2);
#40=CIRCLE('',#383,18.2);
#41=CIRCLE('',#385,19.2);
#42=CYLINDRICAL_SURFACE('',#350,4.25);
#43=CYLINDRICAL_SURFACE('',#354,4.25);
#44=CYLINDRICAL_SURFACE('',#357,18.2);
#45=CYLINDRICAL_SURFACE('',#359,18.2);
#46=CYLINDRICAL_SURFACE('',#365,18.2);
#47=CYLINDRICAL_SURFACE('',#366,18.2);
#48=CYLINDRICAL_SURFACE('',#372,21.2);
#49=CYLINDRICAL_SURFACE('',#377,21.2);
#50=CYLINDRICAL_SURFACE('',#382,18.2);
#51=CYLINDRICAL_SURFACE('',#384,19.2);
#52=FACE_OUTER_BOUND('',#72,.T.);
#53=FACE_OUTER_BOUND('',#73,.T.);
#54=FACE_OUTER_BOUND('',#74,.T.);
#55=FACE_OUTER_BOUND('',#75,.T.);
#56=FACE_OUTER_BOUND('',#76,.T.);
#57=FACE_OUTER_BOUND('',#77,.T.);
#58=FACE_OUTER_BOUND('',#78,.T.);
#59=FACE_OUTER_BOUND('',#80,.T.);
#60=FACE_OUTER_BOUND('',#81,.T.);
#61=FACE_OUTER_BOUND('',#82,.T.);
#62=FACE_OUTER_BOUND('',#83,.T.);
#63=FACE_OUTER_BOUND('',#84,.T.);
#64=FACE_OUTER_BOUND('',#85,.T.);
#65=FACE_OUTER_BOUND('',#86,.T.);
#66=FACE_OUTER_BOUND('',#87,.T.);
#67=FACE_OUTER_BOUND('',#89,.T.);
#68=FACE_OUTER_BOUND('',#91,.T.);
#69=FACE_OUTER_BOUND('',#93,.T.);
#70=FACE_OUTER_BOUND('',#94,.T.);
#71=FACE_OUTER_BOUND('',#95,.T.);
#72=EDGE_LOOP('',(#210,#211,#212,#213));
#73=EDGE_LOOP('',(#214,#215,#216,#217));
#74=EDGE_LOOP('',(#218,#219,#220,#221));
#75=EDGE_LOOP('',(#222,#223,#224,#225));
#76=EDGE_LOOP('',(#226,#227,#228));
#77=EDGE_LOOP('',(#229,#230,#231));
#78=EDGE_LOOP('',(#232,#233,#234,#235,#236,#237));
#79=EDGE_LOOP('',(#238,#239,#240,#241));
#80=EDGE_LOOP('',(#242,#243,#244,#245));
#81=EDGE_LOOP('',(#246,#247,#248));
#82=EDGE_LOOP('',(#249,#250,#251));
#83=EDGE_LOOP('',(#252,#253,#254,#255));
#84=EDGE_LOOP('',(#256,#257));
#85=EDGE_LOOP('',(#258,#259));
#86=EDGE_LOOP('',(#260,#261,#262,#263,#264,#265,#266,#267));
#87=EDGE_LOOP('',(#268,#269,#270,#271,#272));
#88=EDGE_LOOP('',(#273,#274,#275,#276,#277,#278));
#89=EDGE_LOOP('',(#279));
#90=EDGE_LOOP('',(#280));
#91=EDGE_LOOP('',(#281));
#92=EDGE_LOOP('',(#282,#283,#284,#285));
#93=EDGE_LOOP('',(#286,#287,#288,#289));
#94=EDGE_LOOP('',(#290,#291,#292,#293));
#95=EDGE_LOOP('',(#294));
#96=EDGE_LOOP('',(#295));
#97=LINE('',#490,#118);
#98=LINE('',#492,#119);
#99=LINE('',#494,#120);
#100=LINE('',#495,#121);
#101=LINE('',#501,#122);
#102=LINE('',#504,#123);
#103=LINE('',#506,#124);
#104=LINE('',#507,#125);
#105=LINE('',#524,#126);
#106=LINE('',#536,#127);
#107=LINE('',#540,#128);
#108=LINE('',#545,#129);
#109=LINE('',#548,#130);
#110=LINE('',#549,#131);
#111=LINE('',#569,#132);
#112=LINE('',#571,#133);
#113=LINE('',#576,#134);
#114=LINE('',#581,#135);
#115=LINE('',#586,#136);
#116=LINE('',#599,#137);
#117=LINE('',#603,#138);
#118=VECTOR('',#391,10.);
#119=VECTOR('',#392,10.);
#120=VECTOR('',#393,10.);
#121=VECTOR('',#394,10.);
#122=VECTOR('',#401,10.);
#123=VECTOR('',#404,10.);
#124=VECTOR('',#405,10.);
#125=VECTOR('',#406,10.);
#126=VECTOR('',#417,10.);
#127=VECTOR('',#420,10.);
#128=VECTOR('',#425,10.);
#129=VECTOR('',#430,10.);
#130=VECTOR('',#433,10.);
#131=VECTOR('',#434,10.);
#132=VECTOR('',#439,10.);
#133=VECTOR('',#442,10.);
#134=VECTOR('',#447,10.);
#135=VECTOR('',#452,10.);
#136=VECTOR('',#457,21.2);
#137=VECTOR('',#476,18.2);
#138=VECTOR('',#481,19.2);
#139=VERTEX_POINT('',#488);
#140=VERTEX_POINT('',#489);
#141=VERTEX_POINT('',#491);
#142=VERTEX_POINT('',#493);
#143=VERTEX_POINT('',#497);
#144=VERTEX_POINT('',#499);
#145=VERTEX_POINT('',#503);
#146=VERTEX_POINT('',#505);
#147=VERTEX_POINT('',#512);
#148=VERTEX_POINT('',#513);
#149=VERTEX_POINT('',#522);
#150=VERTEX_POINT('',#526);
#151=VERTEX_POINT('',#535);
#152=VERTEX_POINT('',#539);
#153=VERTEX_POINT('',#541);
#154=VERTEX_POINT('',#543);
#155=VERTEX_POINT('',#547);
#156=VERTEX_POINT('',#560);
#157=VERTEX_POINT('',#573);
#158=VERTEX_POINT('',#574);
#159=VERTEX_POINT('',#578);
#160=VERTEX_POINT('',#579);
#161=VERTEX_POINT('',#583);
#162=VERTEX_POINT('',#585);
#163=VERTEX_POINT('',#592);
#164=VERTEX_POINT('',#595);
#165=VERTEX_POINT('',#598);
#166=VERTEX_POINT('',#602);
#167=EDGE_CURVE('',#139,#140,#97,.T.);
#168=EDGE_CURVE('',#141,#139,#98,.T.);
#169=EDGE_CURVE('',#142,#141,#99,.T.);
#170=EDGE_CURVE('',#142,#140,#100,.T.);
#171=EDGE_CURVE('',#140,#143,#29,.T.);
#172=EDGE_CURVE('',#144,#142,#30,.T.);
#173=EDGE_CURVE('',#144,#143,#101,.T.);
#174=EDGE_CURVE('',#143,#145,#102,.T.);
#175=EDGE_CURVE('',#146,#144,#103,.T.);
#176=EDGE_CURVE('',#146,#145,#104,.T.);
#177=EDGE_CURVE('',#145,#139,#31,.T.);
#178=EDGE_CURVE('',#141,#146,#32,.T.);
#179=EDGE_CURVE('',#147,#148,#25,.T.);
#180=EDGE_CURVE('',#149,#147,#33,.T.);
#181=EDGE_CURVE('',#149,#148,#105,.T.);
#182=EDGE_CURVE('',#150,#147,#26,.T.);
#183=EDGE_CURVE('',#151,#150,#106,.T.);
#184=EDGE_CURVE('',#147,#151,#34,.T.);
#185=EDGE_CURVE('',#151,#152,#107,.T.);
#186=EDGE_CURVE('',#152,#153,#35,.T.);
#187=EDGE_CURVE('',#153,#154,#36,.T.);
#188=EDGE_CURVE('',#154,#149,#108,.T.);
#189=EDGE_CURVE('',#148,#155,#109,.T.);
#190=EDGE_CURVE('',#154,#155,#110,.T.);
#191=EDGE_CURVE('',#155,#153,#27,.T.);
#192=EDGE_CURVE('',#153,#156,#28,.T.);
#193=EDGE_CURVE('',#152,#156,#111,.T.);
#194=EDGE_CURVE('',#156,#150,#112,.T.);
#195=EDGE_CURVE('',#157,#158,#15,.T.);
#196=EDGE_CURVE('',#157,#158,#113,.T.);
#197=EDGE_CURVE('',#159,#160,#16,.T.);
#198=EDGE_CURVE('',#159,#160,#114,.T.);
#199=EDGE_CURVE('',#158,#161,#17,.T.);
#200=EDGE_CURVE('',#161,#162,#115,.T.);
#201=EDGE_CURVE('',#162,#162,#37,.T.);
#202=EDGE_CURVE('',#161,#159,#18,.T.);
#203=EDGE_CURVE('',#160,#157,#19,.T.);
#204=EDGE_CURVE('',#163,#163,#38,.T.);
#205=EDGE_CURVE('',#164,#164,#39,.T.);
#206=EDGE_CURVE('',#164,#165,#116,.T.);
#207=EDGE_CURVE('',#165,#165,#40,.T.);
#208=EDGE_CURVE('',#163,#166,#117,.T.);
#209=EDGE_CURVE('',#166,#166,#41,.T.);
#210=ORIENTED_EDGE('',*,*,#167,.F.);
#211=ORIENTED_EDGE('',*,*,#168,.F.);
#212=ORIENTED_EDGE('',*,*,#169,.F.);
#213=ORIENTED_EDGE('',*,*,#170,.T.);
#214=ORIENTED_EDGE('',*,*,#171,.F.);
#215=ORIENTED_EDGE('',*,*,#170,.F.);
#216=ORIENTED_EDGE('',*,*,#172,.F.);
#217=ORIENTED_EDGE('',*,*,#173,.T.);
#218=ORIENTED_EDGE('',*,*,#174,.F.);
#219=ORIENTED_EDGE('',*,*,#173,.F.);
#220=ORIENTED_EDGE('',*,*,#175,.F.);
#221=ORIENTED_EDGE('',*,*,#176,.T.);
#222=ORIENTED_EDGE('',*,*,#177,.F.);
#223=ORIENTED_EDGE('',*,*,#176,.F.);
#224=ORIENTED_EDGE('',*,*,#178,.F.);
#225=ORIENTED_EDGE('',*,*,#168,.T.);
#226=ORIENTED_EDGE('',*,*,#179,.F.);
#227=ORIENTED_EDGE('',*,*,#180,.F.);
#228=ORIENTED_EDGE('',*,*,#181,.T.);
#229=ORIENTED_EDGE('',*,*,#182,.F.);
#230=ORIENTED_EDGE('',*,*,#183,.F.);
#231=ORIENTED_EDGE('',*,*,#184,.F.);
#232=ORIENTED_EDGE('',*,*,#184,.T.);
#233=ORIENTED_EDGE('',*,*,#185,.T.);
#234=ORIENTED_EDGE('',*,*,#186,.T.);
#235=ORIENTED_EDGE('',*,*,#187,.T.);
#236=ORIENTED_EDGE('',*,*,#188,.T.);
#237=ORIENTED_EDGE('',*,*,#180,.T.);
#238=ORIENTED_EDGE('',*,*,#175,.T.);
#239=ORIENTED_EDGE('',*,*,#172,.T.);
#240=ORIENTED_EDGE('',*,*,#169,.T.);
#241=ORIENTED_EDGE('',*,*,#178,.T.);
#242=ORIENTED_EDGE('',*,*,#189,.F.);
#243=ORIENTED_EDGE('',*,*,#181,.F.);
#244=ORIENTED_EDGE('',*,*,#188,.F.);
#245=ORIENTED_EDGE('',*,*,#190,.T.);
#246=ORIENTED_EDGE('',*,*,#191,.F.);
#247=ORIENTED_EDGE('',*,*,#190,.F.);
#248=ORIENTED_EDGE('',*,*,#187,.F.);
#249=ORIENTED_EDGE('',*,*,#192,.F.);
#250=ORIENTED_EDGE('',*,*,#186,.F.);
#251=ORIENTED_EDGE('',*,*,#193,.T.);
#252=ORIENTED_EDGE('',*,*,#194,.F.);
#253=ORIENTED_EDGE('',*,*,#193,.F.);
#254=ORIENTED_EDGE('',*,*,#185,.F.);
#255=ORIENTED_EDGE('',*,*,#183,.T.);
#256=ORIENTED_EDGE('',*,*,#195,.F.);
#257=ORIENTED_EDGE('',*,*,#196,.T.);
#258=ORIENTED_EDGE('',*,*,#197,.F.);
#259=ORIENTED_EDGE('',*,*,#198,.T.);
#260=ORIENTED_EDGE('',*,*,#195,.T.);
#261=ORIENTED_EDGE('',*,*,#199,.T.);
#262=ORIENTED_EDGE('',*,*,#200,.T.);
#263=ORIENTED_EDGE('',*,*,#201,.T.);
#264=ORIENTED_EDGE('',*,*,#200,.F.);
#265=ORIENTED_EDGE('',*,*,#202,.T.);
#266=ORIENTED_EDGE('',*,*,#197,.T.);
#267=ORIENTED_EDGE('',*,*,#203,.T.);
#268=ORIENTED_EDGE('',*,*,#203,.F.);
#269=ORIENTED_EDGE('',*,*,#198,.F.);
#270=ORIENTED_EDGE('',*,*,#202,.F.);
#271=ORIENTED_EDGE('',*,*,#199,.F.);
#272=ORIENTED_EDGE('',*,*,#196,.F.);
#273=ORIENTED_EDGE('',*,*,#191,.T.);
#274=ORIENTED_EDGE('',*,*,#192,.T.);
#275=ORIENTED_EDGE('',*,*,#194,.T.);
#276=ORIENTED_EDGE('',*,*,#182,.T.);
#277=ORIENTED_EDGE('',*,*,#179,.T.);
#278=ORIENTED_EDGE('',*,*,#189,.T.);
#279=ORIENTED_EDGE('',*,*,#201,.F.);
#280=ORIENTED_EDGE('',*,*,#204,.T.);
#281=ORIENTED_EDGE('',*,*,#205,.T.);
#282=ORIENTED_EDGE('',*,*,#174,.T.);
#283=ORIENTED_EDGE('',*,*,#177,.T.);
#284=ORIENTED_EDGE('',*,*,#167,.T.);
#285=ORIENTED_EDGE('',*,*,#171,.T.);
#286=ORIENTED_EDGE('',*,*,#205,.F.);
#287=ORIENTED_EDGE('',*,*,#206,.T.);
#288=ORIENTED_EDGE('',*,*,#207,.T.);
#289=ORIENTED_EDGE('',*,*,#206,.F.);
#290=ORIENTED_EDGE('',*,*,#204,.F.);
#291=ORIENTED_EDGE('',*,*,#208,.T.);
#292=ORIENTED_EDGE('',*,*,#209,.T.);
#293=ORIENTED_EDGE('',*,*,#208,.F.);
#294=ORIENTED_EDGE('',*,*,#209,.F.);
#295=ORIENTED_EDGE('',*,*,#207,.F.);
#296=PLANE('',#349);
#297=PLANE('',#353);
#298=PLANE('',#361);
#299=PLANE('',#364);
#300=PLANE('',#367);
#301=PLANE('',#368);
#302=PLANE('',#370);
#303=PLANE('',#378);
#304=PLANE('',#380);
#305=PLANE('',#386);
#306=ADVANCED_FACE('',(#52),#296,.F.);
#307=ADVANCED_FACE('',(#53),#42,.F.);
#308=ADVANCED_FACE('',(#54),#297,.F.);
#309=ADVANCED_FACE('',(#55),#43,.F.);
#310=ADVANCED_FACE('',(#56),#44,.F.);
#311=ADVANCED_FACE('',(#57),#45,.F.);
#312=ADVANCED_FACE('',(#58,#20),#298,.T.);
#313=ADVANCED_FACE('',(#59),#299,.F.);
#314=ADVANCED_FACE('',(#60),#46,.F.);
#315=ADVANCED_FACE('',(#61),#47,.F.);
#316=ADVANCED_FACE('',(#62),#300,.F.);
#317=ADVANCED_FACE('',(#63),#301,.F.);
#318=ADVANCED_FACE('',(#64),#302,.F.);
#319=ADVANCED_FACE('',(#65),#48,.T.);
#320=ADVANCED_FACE('',(#66,#21),#49,.F.);
#321=ADVANCED_FACE('',(#67,#22),#303,.F.);
#322=ADVANCED_FACE('',(#68,#23),#304,.F.);
#323=ADVANCED_FACE('',(#69),#50,.F.);
#324=ADVANCED_FACE('',(#70),#51,.T.);
#325=ADVANCED_FACE('',(#71,#24),#305,.F.);
#326=CLOSED_SHELL('',(#306,#307,#308,#309,#310,#311,#312,#313,#314,#315,
#316,#317,#318,#319,#320,#321,#322,#323,#324,#325));
#327=DERIVED_UNIT_ELEMENT(#330,1.);
#328=DERIVED_UNIT_ELEMENT(#611,-3.);
#329=DIMENSIONAL_EXPONENTS(1.,0.,0.,0.,0.,0.,0.);
#330=(
CONVERSION_BASED_UNIT('gram',#332)
MASS_UNIT()
NAMED_UNIT(#329)
);
#331=(
MASS_UNIT()
NAMED_UNIT(*)
SI_UNIT(.KILO.,.GRAM.)
);
#332=MASS_MEASURE_WITH_UNIT(MASS_MEASURE(0.001),#331);
#333=DERIVED_UNIT((#327,#328));
#334=MEASURE_REPRESENTATION_ITEM('density measure',
POSITIVE_RATIO_MEASURE(8.),#333);
#335=PROPERTY_DEFINITION_REPRESENTATION(#340,#337);
#336=PROPERTY_DEFINITION_REPRESENTATION(#341,#338);
#337=REPRESENTATION('material name',(#339),#608);
#338=REPRESENTATION('density',(#334),#608);
#339=DESCRIPTIVE_REPRESENTATION_ITEM('Edelstahl AISI 304',
'Edelstahl AISI 304');
#340=PROPERTY_DEFINITION('material property','material name',#618);
#341=PROPERTY_DEFINITION('material property','density of part',#618);
#342=DATE_TIME_ROLE('creation_date');
#343=APPLIED_DATE_AND_TIME_ASSIGNMENT(#344,#342,(#618));
#344=DATE_AND_TIME(#345,#346);
#345=CALENDAR_DATE(2021,17,6);
#346=LOCAL_TIME(0,0,0.,#347);
#347=COORDINATED_UNIVERSAL_TIME_OFFSET(0,0,.BEHIND.);
#348=AXIS2_PLACEMENT_3D('placement',#486,#387,#388);
#349=AXIS2_PLACEMENT_3D('',#487,#389,#390);
#350=AXIS2_PLACEMENT_3D('',#496,#395,#396);
#351=AXIS2_PLACEMENT_3D('',#498,#397,#398);
#352=AXIS2_PLACEMENT_3D('',#500,#399,#400);
#353=AXIS2_PLACEMENT_3D('',#502,#402,#403);
#354=AXIS2_PLACEMENT_3D('',#508,#407,#408);
#355=AXIS2_PLACEMENT_3D('',#509,#409,#410);
#356=AXIS2_PLACEMENT_3D('',#510,#411,#412);
#357=AXIS2_PLACEMENT_3D('',#511,#413,#414);
#358=AXIS2_PLACEMENT_3D('',#523,#415,#416);
#359=AXIS2_PLACEMENT_3D('',#525,#418,#419);
#360=AXIS2_PLACEMENT_3D('',#537,#421,#422);
#361=AXIS2_PLACEMENT_3D('',#538,#423,#424);
#362=AXIS2_PLACEMENT_3D('',#542,#426,#427);
#363=AXIS2_PLACEMENT_3D('',#544,#428,#429);
#364=AXIS2_PLACEMENT_3D('',#546,#431,#432);
#365=AXIS2_PLACEMENT_3D('',#550,#435,#436);
#366=AXIS2_PLACEMENT_3D('',#559,#437,#438);
#367=AXIS2_PLACEMENT_3D('',#570,#440,#441);
#368=AXIS2_PLACEMENT_3D('',#572,#443,#444);
#369=AXIS2_PLACEMENT_3D('',#575,#445,#446);
#370=AXIS2_PLACEMENT_3D('',#577,#448,#449);
#371=AXIS2_PLACEMENT_3D('',#580,#450,#451);
#372=AXIS2_PLACEMENT_3D('',#582,#453,#454);
#373=AXIS2_PLACEMENT_3D('',#584,#455,#456);
#374=AXIS2_PLACEMENT_3D('',#587,#458,#459);
#375=AXIS2_PLACEMENT_3D('',#588,#460,#461);
#376=AXIS2_PLACEMENT_3D('',#589,#462,#463);
#377=AXIS2_PLACEMENT_3D('',#590,#464,#465);
#378=AXIS2_PLACEMENT_3D('',#591,#466,#467);
#379=AXIS2_PLACEMENT_3D('',#593,#468,#469);
#380=AXIS2_PLACEMENT_3D('',#594,#470,#471);
#381=AXIS2_PLACEMENT_3D('',#596,#472,#473);
#382=AXIS2_PLACEMENT_3D('',#597,#474,#475);
#383=AXIS2_PLACEMENT_3D('',#600,#477,#478);
#384=AXIS2_PLACEMENT_3D('',#601,#479,#480);
#385=AXIS2_PLACEMENT_3D('',#604,#482,#483);
#386=AXIS2_PLACEMENT_3D('',#605,#484,#485);
#387=DIRECTION('axis',(0.,0.,1.));
#388=DIRECTION('refdir',(1.,0.,0.));
#389=DIRECTION('center_axis',(0.,0.,1.));
#390=DIRECTION('ref_axis',(-1.,0.,0.));
#391=DIRECTION('',(1.,0.,0.));
#392=DIRECTION('',(0.,-1.,0.));
#393=DIRECTION('',(-1.,0.,0.));
#394=DIRECTION('',(0.,-1.,0.));
#395=DIRECTION('center_axis',(0.,-1.,0.));
#396=DIRECTION('ref_axis',(0.,0.,1.));
#397=DIRECTION('center_axis',(0.,1.,0.));
#398=DIRECTION('ref_axis',(0.,0.,1.));
#399=DIRECTION('center_axis',(0.,-1.,0.));
#400=DIRECTION('ref_axis',(0.,0.,1.));
#401=DIRECTION('',(0.,-1.,0.));
#402=DIRECTION('center_axis',(0.,0.,-1.));
#403=DIRECTION('ref_axis',(1.,0.,0.));
#404=DIRECTION('',(-1.,0.,0.));
#405=DIRECTION('',(1.,0.,0.));
#406=DIRECTION('',(0.,-1.,0.));
#407=DIRECTION('center_axis',(0.,-1.,0.));
#408=DIRECTION('ref_axis',(0.,0.,-1.));
#409=DIRECTION('center_axis',(0.,1.,0.));
#410=DIRECTION('ref_axis',(0.,0.,-1.));
#411=DIRECTION('center_axis',(0.,-1.,0.));
#412=DIRECTION('ref_axis',(0.,0.,-1.));
#413=DIRECTION('center_axis',(0.,1.,0.));
#414=DIRECTION('ref_axis',(0.833367926475482,0.,0.552718643725681));
#415=DIRECTION('center_axis',(0.,1.,0.));
#416=DIRECTION('ref_axis',(0.833367926475482,0.,0.552718643725681));
#417=DIRECTION('',(0.,1.,0.));
#418=DIRECTION('center_axis',(0.,1.,0.));
#419=DIRECTION('ref_axis',(0.833367926475482,0.,0.552718643725681));
#420=DIRECTION('',(0.,1.,0.));
#421=DIRECTION('center_axis',(0.,1.,0.));
#422=DIRECTION('ref_axis',(0.833367926475482,0.,0.552718643725681));
#423=DIRECTION('center_axis',(0.,1.,0.));
#424=DIRECTION('ref_axis',(0.,0.,1.));
#425=DIRECTION('',(-1.,0.,0.));
#426=DIRECTION('center_axis',(0.,1.,0.));
#427=DIRECTION('ref_axis',(-0.833367926475482,0.,-0.552718643725681));
#428=DIRECTION('center_axis',(0.,1.,0.));
#429=DIRECTION('ref_axis',(-0.833367926475482,0.,-0.552718643725681));
#430=DIRECTION('',(1.,0.,0.));
#431=DIRECTION('center_axis',(0.,0.,1.));
#432=DIRECTION('ref_axis',(1.,0.,0.));
#433=DIRECTION('',(-1.,0.,0.));
#434=DIRECTION('',(0.,1.,0.));
#435=DIRECTION('center_axis',(0.,1.,0.));
#436=DIRECTION('ref_axis',(-0.833367926475482,0.,-0.552718643725681));
#437=DIRECTION('center_axis',(0.,1.,0.));
#438=DIRECTION('ref_axis',(-0.833367926475482,0.,-0.552718643725681));
#439=DIRECTION('',(0.,1.,0.));
#440=DIRECTION('center_axis',(0.,0.,-1.));
#441=DIRECTION('ref_axis',(-1.,0.,0.));
#442=DIRECTION('',(1.,0.,0.));
#443=DIRECTION('center_axis',(0.,-0.707106781186547,-0.707106781186548));
#444=DIRECTION('ref_axis',(0.,0.707106781186548,-0.707106781186547));
#445=DIRECTION('center_axis',(0.,-0.707106781186547,-0.707106781186548));
#446=DIRECTION('ref_axis',(0.,0.707106781186548,-0.707106781186547));
#447=DIRECTION('',(-1.,0.,0.));
#448=DIRECTION('center_axis',(0.,-0.707106781186547,0.707106781186548));
#449=DIRECTION('ref_axis',(0.,-0.707106781186548,-0.707106781186547));
#450=DIRECTION('center_axis',(0.,-0.707106781186547,0.707106781186548));
#451=DIRECTION('ref_axis',(0.,-0.707106781186548,-0.707106781186547));
#452=DIRECTION('',(1.,0.,0.));
#453=DIRECTION('center_axis',(0.,1.,0.));
#454=DIRECTION('ref_axis',(1.,0.,0.));
#455=DIRECTION('center_axis',(0.707106781186548,-0.707106781186547,0.));
#456=DIRECTION('ref_axis',(0.707106781186547,0.707106781186548,0.));
#457=DIRECTION('',(0.,-1.,0.));
#458=DIRECTION('center_axis',(0.,1.,0.));
#459=DIRECTION('ref_axis',(1.,0.,0.));
#460=DIRECTION('center_axis',(0.707106781186548,-0.707106781186547,0.));
#461=DIRECTION('ref_axis',(0.707106781186547,0.707106781186548,0.));
#462=DIRECTION('center_axis',(-0.707106781186548,-0.707106781186547,0.));
#463=DIRECTION('ref_axis',(-0.707106781186547,0.707106781186548,0.));
#464=DIRECTION('center_axis',(1.,0.,0.));
#465=DIRECTION('ref_axis',(0.,-1.,1.22464679914735E-16));
#466=DIRECTION('center_axis',(0.,1.,0.));
#467=DIRECTION('ref_axis',(0.,0.,1.));
#468=DIRECTION('center_axis',(0.,1.,0.));
#469=DIRECTION('ref_axis',(-1.,0.,0.));
#470=DIRECTION('center_axis',(0.,1.,0.));
#471=DIRECTION('ref_axis',(0.,0.,1.));
#472=DIRECTION('center_axis',(0.,-1.,0.));
#473=DIRECTION('ref_axis',(1.,0.,0.));
#474=DIRECTION('center_axis',(0.,1.,0.));
#475=DIRECTION('ref_axis',(1.,0.,0.));
#476=DIRECTION('',(0.,-1.,0.));
#477=DIRECTION('center_axis',(0.,-1.,0.));
#478=DIRECTION('ref_axis',(1.,0.,0.));
#479=DIRECTION('center_axis',(0.,1.,0.));
#480=DIRECTION('ref_axis',(-1.,0.,0.));
#481=DIRECTION('',(0.,-1.,0.));
#482=DIRECTION('center_axis',(0.,1.,0.));
#483=DIRECTION('ref_axis',(-1.,0.,0.));
#484=DIRECTION('center_axis',(0.,1.,0.));
#485=DIRECTION('ref_axis',(0.,0.,1.));
#486=CARTESIAN_POINT('',(0.,0.,0.));
#487=CARTESIAN_POINT('Origin',(2.,28.5,4.25));
#488=CARTESIAN_POINT('',(0.,20.,4.25));
#489=CARTESIAN_POINT('',(2.,20.,4.25));
#490=CARTESIAN_POINT('',(1.,20.,4.25));
#491=CARTESIAN_POINT('',(0.,28.5,4.25));
#492=CARTESIAN_POINT('',(0.,28.5,4.25));
#493=CARTESIAN_POINT('',(2.,28.5,4.25));
#494=CARTESIAN_POINT('',(1.,28.5,4.25));
#495=CARTESIAN_POINT('',(2.,28.5,4.25));
#496=CARTESIAN_POINT('Origin',(2.,28.5,0.));
#497=CARTESIAN_POINT('',(2.,20.,-4.25));
#498=CARTESIAN_POINT('Origin',(2.,20.,0.));
#499=CARTESIAN_POINT('',(2.,28.5,-4.25));
#500=CARTESIAN_POINT('Origin',(2.,28.5,0.));
#501=CARTESIAN_POINT('',(2.,28.5,-4.25));
#502=CARTESIAN_POINT('Origin',(0.,28.5,-4.25));
#503=CARTESIAN_POINT('',(0.,20.,-4.25));
#504=CARTESIAN_POINT('',(0.,20.,-4.25));
#505=CARTESIAN_POINT('',(0.,28.5,-4.25));
#506=CARTESIAN_POINT('',(0.,28.5,-4.25));
#507=CARTESIAN_POINT('',(0.,28.5,-4.25));
#508=CARTESIAN_POINT('Origin',(0.,28.5,0.));
#509=CARTESIAN_POINT('Origin',(0.,20.,0.));
#510=CARTESIAN_POINT('Origin',(0.,28.5,0.));
#511=CARTESIAN_POINT('Origin',(0.,28.5,0.));
#512=CARTESIAN_POINT('',(18.2,28.5,3.44772797805799E-15));
#513=CARTESIAN_POINT('',(15.1672962618538,31.0386260984127,10.0594793158074));
#514=CARTESIAN_POINT('Ctrl Pts',(18.2,28.5,4.9960036108132E-15));
#515=CARTESIAN_POINT('Ctrl Pts',(18.2,28.5,1.21744904512555));
#516=CARTESIAN_POINT('Ctrl Pts',(18.0759148041793,28.6068272707276,2.45485815868531));
#517=CARTESIAN_POINT('Ctrl Pts',(17.5786243458042,29.0313940076026,4.87411434790121));
#518=CARTESIAN_POINT('Ctrl Pts',(17.2056427113935,29.3489216211751,6.05604455995633));
#519=CARTESIAN_POINT('Ctrl Pts',(16.2885665136216,30.117863905888,8.19552908881867));
#520=CARTESIAN_POINT('Ctrl Pts',(15.7599497662855,30.5569385586985,9.16589914131303));
#521=CARTESIAN_POINT('Ctrl Pts',(15.1672962618538,31.0386260984127,10.0594793158074));
#522=CARTESIAN_POINT('',(15.1672962618538,28.5,10.0594793158074));
#523=CARTESIAN_POINT('Origin',(0.,28.5,0.));
#524=CARTESIAN_POINT('',(15.1672962618538,28.5,10.0594793158074));
#525=CARTESIAN_POINT('Origin',(0.,28.5,0.));
#526=CARTESIAN_POINT('',(15.1672962618538,31.0386260984127,-10.0594793158074));
#527=CARTESIAN_POINT('Ctrl Pts',(15.1672962618538,31.0386260984127,-10.0594793158074));
#528=CARTESIAN_POINT('Ctrl Pts',(15.7599497662855,30.5569385586985,-9.16589914131303));
#529=CARTESIAN_POINT('Ctrl Pts',(16.2885665136216,30.117863905888,-8.19552908881866));
#530=CARTESIAN_POINT('Ctrl Pts',(17.2056427113935,29.3489216211751,-6.05604455995632));
#531=CARTESIAN_POINT('Ctrl Pts',(17.5786243458042,29.0313940076026,-4.87411434790121));
#532=CARTESIAN_POINT('Ctrl Pts',(18.0759148041793,28.6068272707276,-2.45485815868531));
#533=CARTESIAN_POINT('Ctrl Pts',(18.2,28.5,-1.21744904512554));
#534=CARTESIAN_POINT('Ctrl Pts',(18.2,28.5,4.9960036108132E-15));
#535=CARTESIAN_POINT('',(15.1672962618538,28.5,-10.0594793158074));
#536=CARTESIAN_POINT('',(15.1672962618538,28.5,-10.0594793158074));
#537=CARTESIAN_POINT('Origin',(0.,28.5,0.));
#538=CARTESIAN_POINT('Origin',(0.,28.5,0.));
#539=CARTESIAN_POINT('',(-15.1672962618538,28.5,-10.0594793158074));
#540=CARTESIAN_POINT('',(15.1672962618538,28.5,-10.0594793158074));
#541=CARTESIAN_POINT('',(-18.2,28.5,-3.44772797805799E-15));
#542=CARTESIAN_POINT('Origin',(0.,28.5,0.));
#543=CARTESIAN_POINT('',(-15.1672962618538,28.5,10.0594793158074));
#544=CARTESIAN_POINT('Origin',(0.,28.5,0.));
#545=CARTESIAN_POINT('',(-15.1672962618538,28.5,10.0594793158074));
#546=CARTESIAN_POINT('Origin',(-15.1672962618538,28.5,10.0594793158074));
#547=CARTESIAN_POINT('',(-15.1672962618538,31.0386260984127,10.0594793158074));
#548=CARTESIAN_POINT('',(0.,31.0386260984127,10.0594793158074));
#549=CARTESIAN_POINT('',(-15.1672962618538,28.5,10.0594793158074));
#550=CARTESIAN_POINT('Origin',(0.,28.5,0.));
#551=CARTESIAN_POINT('Ctrl Pts',(-15.1672962618538,31.0386260984127,10.0594793158074));
#552=CARTESIAN_POINT('Ctrl Pts',(-15.7599497662855,30.5569385586985,9.16589914131303));
#553=CARTESIAN_POINT('Ctrl Pts',(-16.2885665136216,30.117863905888,8.19552908881867));
#554=CARTESIAN_POINT('Ctrl Pts',(-17.2056427113935,29.3489216211751,6.05604455995633));
#555=CARTESIAN_POINT('Ctrl Pts',(-17.5786243458042,29.0313940076026,4.87411434790122));
#556=CARTESIAN_POINT('Ctrl Pts',(-18.0759148041793,28.6068272707276,2.45485815868532));
#557=CARTESIAN_POINT('Ctrl Pts',(-18.2,28.5,1.21744904512555));
#558=CARTESIAN_POINT('Ctrl Pts',(-18.2,28.5,-1.94289029309402E-15));
#559=CARTESIAN_POINT('Origin',(0.,28.5,0.));
#560=CARTESIAN_POINT('',(-15.1672962618538,31.0386260984127,-10.0594793158074));
#561=CARTESIAN_POINT('Ctrl Pts',(-18.2,28.5,-1.38777878078145E-15));
#562=CARTESIAN_POINT('Ctrl Pts',(-18.2,28.5,-1.21744904512555));
#563=CARTESIAN_POINT('Ctrl Pts',(-18.0759148041793,28.6068272707276,-2.45485815868532));
#564=CARTESIAN_POINT('Ctrl Pts',(-17.5786243458042,29.0313940076026,-4.87411434790122));
#565=CARTESIAN_POINT('Ctrl Pts',(-17.2056427113935,29.3489216211751,-6.05604455995633));
#566=CARTESIAN_POINT('Ctrl Pts',(-16.2885665136216,30.117863905888,-8.19552908881867));
#567=CARTESIAN_POINT('Ctrl Pts',(-15.7599497662855,30.5569385586985,-9.16589914131303));
#568=CARTESIAN_POINT('Ctrl Pts',(-15.1672962618538,31.0386260984127,-10.0594793158074));
#569=CARTESIAN_POINT('',(-15.1672962618538,28.5,-10.0594793158074));
#570=CARTESIAN_POINT('Origin',(15.1672962618538,28.5,-10.0594793158074));
#571=CARTESIAN_POINT('',(0.,31.0386260984127,-10.0594793158074));
#572=CARTESIAN_POINT('Origin',(0.,24.8594793158074,21.2));
#573=CARTESIAN_POINT('',(16.6999999999999,33.,13.0594793158074));
#574=CARTESIAN_POINT('',(-16.6999999999999,33.,13.0594793158074));
#575=CARTESIAN_POINT('Origin',(0.,46.0594793158074,0.));
#576=CARTESIAN_POINT('',(0.,33.,13.0594793158074));
#577=CARTESIAN_POINT('Origin',(0.,33.,-13.0594793158074));
#578=CARTESIAN_POINT('',(-16.6999999999999,33.,-13.0594793158074));
#579=CARTESIAN_POINT('',(16.6999999999999,33.,-13.0594793158074));
#580=CARTESIAN_POINT('Origin',(0.,46.0594793158074,0.));
#581=CARTESIAN_POINT('',(0.,33.,-13.0594793158074));
#582=CARTESIAN_POINT('Origin',(0.,20.,0.));
#583=CARTESIAN_POINT('',(-21.2,28.5,2.59625121419239E-15));
#584=CARTESIAN_POINT('Origin',(0.,49.7,0.));
#585=CARTESIAN_POINT('',(-21.2,20.,2.59625121419239E-15));
#586=CARTESIAN_POINT('',(-21.2,20.,2.59625121419239E-15));
#587=CARTESIAN_POINT('Origin',(0.,20.,0.));
#588=CARTESIAN_POINT('Origin',(0.,49.7,0.));
#589=CARTESIAN_POINT('Origin',(0.,49.7,0.));
#590=CARTESIAN_POINT('Origin',(0.,49.7,0.));
#591=CARTESIAN_POINT('Origin',(0.,20.,0.));
#592=CARTESIAN_POINT('',(19.2,20.,-2.35132185436292E-15));
#593=CARTESIAN_POINT('Origin',(0.,20.,0.));
#594=CARTESIAN_POINT('Origin',(0.,20.,0.));
#595=CARTESIAN_POINT('',(-18.2,20.,2.22885717444818E-15));
#596=CARTESIAN_POINT('Origin',(0.,20.,0.));
#597=CARTESIAN_POINT('Origin',(0.,0.,0.));
#598=CARTESIAN_POINT('',(-18.2,0.,2.22885717444818E-15));
#599=CARTESIAN_POINT('',(-18.2,0.,2.22885717444818E-15));
#600=CARTESIAN_POINT('Origin',(0.,0.,0.));
#601=CARTESIAN_POINT('Origin',(0.,0.,0.));
#602=CARTESIAN_POINT('',(19.2,0.,-2.35132185436292E-15));
#603=CARTESIAN_POINT('',(19.2,0.,-2.35132185436292E-15));
#604=CARTESIAN_POINT('Origin',(0.,0.,0.));
#605=CARTESIAN_POINT('Origin',(0.,0.,0.));
#606=UNCERTAINTY_MEASURE_WITH_UNIT(LENGTH_MEASURE(0.01),#610,
'DISTANCE_ACCURACY_VALUE',
'Maximum model space distance between geometric entities at asserted c
onnectivities');
#607=UNCERTAINTY_MEASURE_WITH_UNIT(LENGTH_MEASURE(0.01),#610,
'DISTANCE_ACCURACY_VALUE',
'Maximum model space distance between geometric entities at asserted c
onnectivities');
#608=(
GEOMETRIC_REPRESENTATION_CONTEXT(3)
GLOBAL_UNCERTAINTY_ASSIGNED_CONTEXT((#606))
GLOBAL_UNIT_ASSIGNED_CONTEXT((#610,#612,#613))
REPRESENTATION_CONTEXT('','3D')
);
#609=(
GEOMETRIC_REPRESENTATION_CONTEXT(3)
GLOBAL_UNCERTAINTY_ASSIGNED_CONTEXT((#607))
GLOBAL_UNIT_ASSIGNED_CONTEXT((#610,#612,#613))
REPRESENTATION_CONTEXT('','3D')
);
#610=(
LENGTH_UNIT()
NAMED_UNIT(*)
SI_UNIT(.MILLI.,.METRE.)
);
#611=(
LENGTH_UNIT()
NAMED_UNIT(*)
SI_UNIT(.CENTI.,.METRE.)
);
#612=(
NAMED_UNIT(*)
PLANE_ANGLE_UNIT()
SI_UNIT($,.RADIAN.)
);
#613=(
NAMED_UNIT(*)
SI_UNIT($,.STERADIAN.)
SOLID_ANGLE_UNIT()
);
#614=SHAPE_DEFINITION_REPRESENTATION(#615,#616);
#615=PRODUCT_DEFINITION_SHAPE('',$,#618);
#616=SHAPE_REPRESENTATION('',(#348),#608);
#617=PRODUCT_DEFINITION_CONTEXT('part definition',#622,'design');
#618=PRODUCT_DEFINITION('41925','41925',#619,#617);
#619=PRODUCT_DEFINITION_FORMATION('',$,#624);
#620=PRODUCT_RELATED_PRODUCT_CATEGORY('41925','41925',(#624));
#621=APPLICATION_PROTOCOL_DEFINITION('international standard',
'automotive_design',2009,#622);
#622=APPLICATION_CONTEXT(
'Core Data for Automotive Mechanical Design Process');
#623=PRODUCT_CONTEXT('part definition',#622,'mechanical');
#624=PRODUCT('41925','41925',$,(#623));
#625=PRESENTATION_STYLE_ASSIGNMENT((#626));
#626=SURFACE_STYLE_USAGE(.BOTH.,#629);
#627=SURFACE_STYLE_RENDERING_WITH_PROPERTIES($,#633,(#628));
#628=SURFACE_STYLE_TRANSPARENT(0.);
#629=SURFACE_SIDE_STYLE('',(#630,#627));
#630=SURFACE_STYLE_FILL_AREA(#631);
#631=FILL_AREA_STYLE('',(#632));
#632=FILL_AREA_STYLE_COLOUR('',#633);
#633=COLOUR_RGB('',0.956862745098039,0.956862745098039,0.956862745098039);
ENDSEC;
END-ISO-10303-21;
