ISO-10303-21;
HEADER;
/* Generated by software containing ST-Developer
 * from STEP Tools, Inc. (www.steptools.com) 
 */

FILE_DESCRIPTION(
/* description */ (''),
/* implementation_level */ '2;1');

FILE_NAME(
/* name */ 
'C:\\Users\\O.Boryczka\\Desktop\\Korrigierte Zeichnungen\\Rohrverbinde
r V2A\\41931.ipt.step',
/* time_stamp */ '2022-07-18T12:56:42+02:00',
/* author */ ('Abt. Technik'),
/* organization */ (''),
/* preprocessor_version */ 'ST-DEVELOPER v18.1',
/* originating_system */ 'Autodesk Inventor 2022',
/* authorisation */ '');

FILE_SCHEMA (('AUTOMOTIVE_DESIGN { 1 0 10303 214 3 1 1 }'));
ENDSEC;

DATA;
#10=MECHANICAL_DESIGN_GEOMETRIC_PRESENTATION_REPRESENTATION('',(#13),#196);
#11=SHAPE_REPRESENTATION_RELATIONSHIP('SRR','None',#203,#12);
#12=ADVANCED_BREP_SHAPE_REPRESENTATION('',(#14),#195);
#13=STYLED_ITEM('',(#212),#14);
#14=MANIFOLD_SOLID_BREP('Volumenk\X\F6rper1',#103);
#15=CIRCLE('',#129,19.1);
#16=CIRCLE('',#130,19.1);
#17=CIRCLE('',#132,18.6);
#18=CIRCLE('',#134,18.6);
#19=CYLINDRICAL_SURFACE('',#128,19.1);
#20=CYLINDRICAL_SURFACE('',#133,18.6);
#21=FACE_OUTER_BOUND('',#27,.T.);
#22=FACE_OUTER_BOUND('',#28,.T.);
#23=FACE_OUTER_BOUND('',#29,.T.);
#24=FACE_OUTER_BOUND('',#30,.T.);
#25=FACE_OUTER_BOUND('',#31,.T.);
#26=FACE_OUTER_BOUND('',#32,.T.);
#27=EDGE_LOOP('',(#69,#70,#71,#72));
#28=EDGE_LOOP('',(#73,#74,#75,#76));
#29=EDGE_LOOP('',(#77,#78,#79,#80));
#30=EDGE_LOOP('',(#81,#82,#83,#84));
#31=EDGE_LOOP('',(#85,#86,#87,#88));
#32=EDGE_LOOP('',(#89,#90,#91,#92));
#33=LINE('',#170,#41);
#34=LINE('',#172,#42);
#35=LINE('',#174,#43);
#36=LINE('',#175,#44);
#37=LINE('',#179,#45);
#38=LINE('',#181,#46);
#39=LINE('',#183,#47);
#40=LINE('',#184,#48);
#41=VECTOR('',#140,10.);
#42=VECTOR('',#141,10.);
#43=VECTOR('',#142,10.);
#44=VECTOR('',#143,10.);
#45=VECTOR('',#146,10.);
#46=VECTOR('',#147,10.);
#47=VECTOR('',#148,10.);
#48=VECTOR('',#149,10.);
#49=VERTEX_POINT('',#168);
#50=VERTEX_POINT('',#169);
#51=VERTEX_POINT('',#171);
#52=VERTEX_POINT('',#173);
#53=VERTEX_POINT('',#177);
#54=VERTEX_POINT('',#178);
#55=VERTEX_POINT('',#180);
#56=VERTEX_POINT('',#182);
#57=EDGE_CURVE('',#49,#50,#33,.T.);
#58=EDGE_CURVE('',#51,#49,#34,.T.);
#59=EDGE_CURVE('',#52,#51,#35,.T.);
#60=EDGE_CURVE('',#50,#52,#36,.T.);
#61=EDGE_CURVE('',#53,#54,#37,.T.);
#62=EDGE_CURVE('',#55,#53,#38,.T.);
#63=EDGE_CURVE('',#56,#55,#39,.T.);
#64=EDGE_CURVE('',#54,#56,#40,.T.);
#65=EDGE_CURVE('',#50,#53,#15,.T.);
#66=EDGE_CURVE('',#49,#54,#16,.T.);
#67=EDGE_CURVE('',#55,#52,#17,.T.);
#68=EDGE_CURVE('',#56,#51,#18,.T.);
#69=ORIENTED_EDGE('',*,*,#57,.F.);
#70=ORIENTED_EDGE('',*,*,#58,.F.);
#71=ORIENTED_EDGE('',*,*,#59,.F.);
#72=ORIENTED_EDGE('',*,*,#60,.F.);
#73=ORIENTED_EDGE('',*,*,#61,.F.);
#74=ORIENTED_EDGE('',*,*,#62,.F.);
#75=ORIENTED_EDGE('',*,*,#63,.F.);
#76=ORIENTED_EDGE('',*,*,#64,.F.);
#77=ORIENTED_EDGE('',*,*,#57,.T.);
#78=ORIENTED_EDGE('',*,*,#65,.T.);
#79=ORIENTED_EDGE('',*,*,#61,.T.);
#80=ORIENTED_EDGE('',*,*,#66,.F.);
#81=ORIENTED_EDGE('',*,*,#60,.T.);
#82=ORIENTED_EDGE('',*,*,#67,.F.);
#83=ORIENTED_EDGE('',*,*,#62,.T.);
#84=ORIENTED_EDGE('',*,*,#65,.F.);
#85=ORIENTED_EDGE('',*,*,#59,.T.);
#86=ORIENTED_EDGE('',*,*,#68,.F.);
#87=ORIENTED_EDGE('',*,*,#63,.T.);
#88=ORIENTED_EDGE('',*,*,#67,.T.);
#89=ORIENTED_EDGE('',*,*,#58,.T.);
#90=ORIENTED_EDGE('',*,*,#66,.T.);
#91=ORIENTED_EDGE('',*,*,#64,.T.);
#92=ORIENTED_EDGE('',*,*,#68,.T.);
#93=PLANE('',#126);
#94=PLANE('',#127);
#95=PLANE('',#131);
#96=PLANE('',#135);
#97=ADVANCED_FACE('',(#21),#93,.F.);
#98=ADVANCED_FACE('',(#22),#94,.F.);
#99=ADVANCED_FACE('',(#23),#19,.T.);
#100=ADVANCED_FACE('',(#24),#95,.F.);
#101=ADVANCED_FACE('',(#25),#20,.F.);
#102=ADVANCED_FACE('',(#26),#96,.T.);
#103=CLOSED_SHELL('',(#97,#98,#99,#100,#101,#102));
#104=DERIVED_UNIT_ELEMENT(#107,1.);
#105=DERIVED_UNIT_ELEMENT(#198,-3.);
#106=DIMENSIONAL_EXPONENTS(1.,0.,0.,0.,0.,0.,0.);
#107=(
CONVERSION_BASED_UNIT('gram',#109)
MASS_UNIT()
NAMED_UNIT(#106)
);
#108=(
MASS_UNIT()
NAMED_UNIT(*)
SI_UNIT(.KILO.,.GRAM.)
);
#109=MASS_MEASURE_WITH_UNIT(MASS_MEASURE(0.001),#108);
#110=DERIVED_UNIT((#104,#105));
#111=MEASURE_REPRESENTATION_ITEM('density measure',
POSITIVE_RATIO_MEASURE(8.),#110);
#112=PROPERTY_DEFINITION_REPRESENTATION(#117,#114);
#113=PROPERTY_DEFINITION_REPRESENTATION(#118,#115);
#114=REPRESENTATION('material name',(#116),#195);
#115=REPRESENTATION('density',(#111),#195);
#116=DESCRIPTIVE_REPRESENTATION_ITEM('Edelstahl AISI 304',
'Edelstahl AISI 304');
#117=PROPERTY_DEFINITION('material property','material name',#205);
#118=PROPERTY_DEFINITION('material property','density of part',#205);
#119=DATE_TIME_ROLE('creation_date');
#120=APPLIED_DATE_AND_TIME_ASSIGNMENT(#121,#119,(#205));
#121=DATE_AND_TIME(#122,#123);
#122=CALENDAR_DATE(2021,10,6);
#123=LOCAL_TIME(0,0,0.,#124);
#124=COORDINATED_UNIVERSAL_TIME_OFFSET(0,0,.BEHIND.);
#125=AXIS2_PLACEMENT_3D('placement',#166,#136,#137);
#126=AXIS2_PLACEMENT_3D('',#167,#138,#139);
#127=AXIS2_PLACEMENT_3D('',#176,#144,#145);
#128=AXIS2_PLACEMENT_3D('',#185,#150,#151);
#129=AXIS2_PLACEMENT_3D('',#186,#152,#153);
#130=AXIS2_PLACEMENT_3D('',#187,#154,#155);
#131=AXIS2_PLACEMENT_3D('',#188,#156,#157);
#132=AXIS2_PLACEMENT_3D('',#189,#158,#159);
#133=AXIS2_PLACEMENT_3D('',#190,#160,#161);
#134=AXIS2_PLACEMENT_3D('',#191,#162,#163);
#135=AXIS2_PLACEMENT_3D('',#192,#164,#165);
#136=DIRECTION('axis',(0.,0.,1.));
#137=DIRECTION('refdir',(1.,0.,0.));
#138=DIRECTION('center_axis',(0.,0.,1.));
#139=DIRECTION('ref_axis',(0.,1.,0.));
#140=DIRECTION('',(0.,-1.,0.));
#141=DIRECTION('',(-1.,0.,0.));
#142=DIRECTION('',(0.,1.,0.));
#143=DIRECTION('',(1.,0.,0.));
#144=DIRECTION('center_axis',(0.,0.,-1.));
#145=DIRECTION('ref_axis',(0.,-1.,0.));
#146=DIRECTION('',(0.,1.,0.));
#147=DIRECTION('',(-1.,0.,0.));
#148=DIRECTION('',(0.,-1.,0.));
#149=DIRECTION('',(1.,0.,0.));
#150=DIRECTION('center_axis',(0.,1.,0.));
#151=DIRECTION('ref_axis',(1.,0.,1.22464679914735E-16));
#152=DIRECTION('center_axis',(0.,1.,0.));
#153=DIRECTION('ref_axis',(-1.,0.,0.));
#154=DIRECTION('center_axis',(0.,1.,0.));
#155=DIRECTION('ref_axis',(-1.,0.,0.));
#156=DIRECTION('center_axis',(0.,1.,0.));
#157=DIRECTION('ref_axis',(0.,0.,1.));
#158=DIRECTION('center_axis',(0.,-1.,0.));
#159=DIRECTION('ref_axis',(1.,0.,0.));
#160=DIRECTION('center_axis',(0.,1.,0.));
#161=DIRECTION('ref_axis',(1.,0.,0.));
#162=DIRECTION('center_axis',(0.,-1.,0.));
#163=DIRECTION('ref_axis',(1.,0.,0.));
#164=DIRECTION('center_axis',(0.,1.,0.));
#165=DIRECTION('ref_axis',(0.,0.,1.));
#166=CARTESIAN_POINT('',(0.,0.,0.));
#167=CARTESIAN_POINT('Origin',(0.,0.,5.));
#168=CARTESIAN_POINT('',(-18.4339360962329,60.,5.));
#169=CARTESIAN_POINT('',(-18.4339360962329,0.,5.));
#170=CARTESIAN_POINT('',(-18.4339360962329,0.,5.));
#171=CARTESIAN_POINT('',(-17.915356541247,60.,5.));
#172=CARTESIAN_POINT('',(0.,60.,5.));
#173=CARTESIAN_POINT('',(-17.915356541247,0.,5.));
#174=CARTESIAN_POINT('',(-17.915356541247,0.,5.));
#175=CARTESIAN_POINT('',(0.,0.,5.));
#176=CARTESIAN_POINT('Origin',(0.,60.,-5.));
#177=CARTESIAN_POINT('',(-18.4339360962329,0.,-5.));
#178=CARTESIAN_POINT('',(-18.4339360962329,60.,-5.));
#179=CARTESIAN_POINT('',(-18.4339360962329,0.,-5.));
#180=CARTESIAN_POINT('',(-17.915356541247,0.,-5.));
#181=CARTESIAN_POINT('',(0.,0.,-5.));
#182=CARTESIAN_POINT('',(-17.915356541247,60.,-5.));
#183=CARTESIAN_POINT('',(-17.915356541247,0.,-5.));
#184=CARTESIAN_POINT('',(0.,60.,-5.));
#185=CARTESIAN_POINT('Origin',(0.,0.,0.));
#186=CARTESIAN_POINT('Origin',(0.,0.,0.));
#187=CARTESIAN_POINT('Origin',(0.,60.,0.));
#188=CARTESIAN_POINT('Origin',(0.,0.,0.));
#189=CARTESIAN_POINT('Origin',(0.,0.,0.));
#190=CARTESIAN_POINT('Origin',(0.,0.,0.));
#191=CARTESIAN_POINT('Origin',(0.,60.,0.));
#192=CARTESIAN_POINT('Origin',(0.,60.,0.));
#193=UNCERTAINTY_MEASURE_WITH_UNIT(LENGTH_MEASURE(0.01),#197,
'DISTANCE_ACCURACY_VALUE',
'Maximum model space distance between geometric entities at asserted c
onnectivities');
#194=UNCERTAINTY_MEASURE_WITH_UNIT(LENGTH_MEASURE(0.01),#197,
'DISTANCE_ACCURACY_VALUE',
'Maximum model space distance between geometric entities at asserted c
onnectivities');
#195=(
GEOMETRIC_REPRESENTATION_CONTEXT(3)
GLOBAL_UNCERTAINTY_ASSIGNED_CONTEXT((#193))
GLOBAL_UNIT_ASSIGNED_CONTEXT((#197,#199,#200))
REPRESENTATION_CONTEXT('','3D')
);
#196=(
GEOMETRIC_REPRESENTATION_CONTEXT(3)
GLOBAL_UNCERTAINTY_ASSIGNED_CONTEXT((#194))
GLOBAL_UNIT_ASSIGNED_CONTEXT((#197,#199,#200))
REPRESENTATION_CONTEXT('','3D')
);
#197=(
LENGTH_UNIT()
NAMED_UNIT(*)
SI_UNIT(.MILLI.,.METRE.)
);
#198=(
LENGTH_UNIT()
NAMED_UNIT(*)
SI_UNIT(.CENTI.,.METRE.)
);
#199=(
NAMED_UNIT(*)
PLANE_ANGLE_UNIT()
SI_UNIT($,.RADIAN.)
);
#200=(
NAMED_UNIT(*)
SI_UNIT($,.STERADIAN.)
SOLID_ANGLE_UNIT()
);
#201=SHAPE_DEFINITION_REPRESENTATION(#202,#203);
#202=PRODUCT_DEFINITION_SHAPE('',$,#205);
#203=SHAPE_REPRESENTATION('',(#125),#195);
#204=PRODUCT_DEFINITION_CONTEXT('part definition',#209,'design');
#205=PRODUCT_DEFINITION('41931','41931',#206,#204);
#206=PRODUCT_DEFINITION_FORMATION('',$,#211);
#207=PRODUCT_RELATED_PRODUCT_CATEGORY('41931','41931',(#211));
#208=APPLICATION_PROTOCOL_DEFINITION('international standard',
'automotive_design',2009,#209);
#209=APPLICATION_CONTEXT(
'Core Data for Automotive Mechanical Design Process');
#210=PRODUCT_CONTEXT('part definition',#209,'mechanical');
#211=PRODUCT('41931','41931',$,(#210));
#212=PRESENTATION_STYLE_ASSIGNMENT((#213));
#213=SURFACE_STYLE_USAGE(.BOTH.,#216);
#214=SURFACE_STYLE_RENDERING_WITH_PROPERTIES($,#220,(#215));
#215=SURFACE_STYLE_TRANSPARENT(0.);
#216=SURFACE_SIDE_STYLE('',(#217,#214));
#217=SURFACE_STYLE_FILL_AREA(#218);
#218=FILL_AREA_STYLE('',(#219));
#219=FILL_AREA_STYLE_COLOUR('',#220);
#220=COLOUR_RGB('',0.956862745098039,0.956862745098039,0.956862745098039);
ENDSEC;
END-ISO-10303-21;
