ISO-10303-21;
HEADER;
/* Generated by software containing ST-Developer
 * from STEP Tools, Inc. (www.steptools.com) 
 */

FILE_DESCRIPTION(
/* description */ (''),
/* implementation_level */ '2;1');

FILE_NAME(
/* name */ 
'C:\\Users\\O.Boryczka\\Desktop\\Korrigierte Zeichnungen\\Wandanschl\X\FC
sse V2A\\IPT_Daten\\41943.ipt.step',
/* time_stamp */ '2022-07-18T12:58:46+02:00',
/* author */ ('Abt. Technik'),
/* organization */ (''),
/* preprocessor_version */ 'ST-DEVELOPER v18.1',
/* originating_system */ 'Autodesk Inventor 2022',
/* authorisation */ '');

FILE_SCHEMA (('AUTOMOTIVE_DESIGN { 1 0 10303 214 3 1 1 }'));
ENDSEC;

DATA;
#10=MECHANICAL_DESIGN_GEOMETRIC_PRESENTATION_REPRESENTATION('',(#13),#294);
#11=SHAPE_REPRESENTATION_RELATIONSHIP('SRR','None',#301,#12);
#12=ADVANCED_BREP_SHAPE_REPRESENTATION('',(#14),#293);
#13=STYLED_ITEM('',(#310),#14);
#14=MANIFOLD_SOLID_BREP('Volumenk\X\F6rper1',#153);
#15=FACE_BOUND('',#43,.T.);
#16=FACE_BOUND('',#45,.T.);
#17=FACE_BOUND('',#48,.T.);
#18=FACE_BOUND('',#51,.T.);
#19=PLANE('',#188);
#20=PLANE('',#189);
#21=PLANE('',#193);
#22=PLANE('',#197);
#23=CYLINDRICAL_SURFACE('',#181,14.85);
#24=CYLINDRICAL_SURFACE('',#183,12.85);
#25=CYLINDRICAL_SURFACE('',#185,7.);
#26=CYLINDRICAL_SURFACE('',#191,5.);
#27=CYLINDRICAL_SURFACE('',#195,16.85);
#28=FACE_OUTER_BOUND('',#38,.T.);
#29=FACE_OUTER_BOUND('',#39,.T.);
#30=FACE_OUTER_BOUND('',#40,.T.);
#31=FACE_OUTER_BOUND('',#41,.T.);
#32=FACE_OUTER_BOUND('',#42,.T.);
#33=FACE_OUTER_BOUND('',#44,.T.);
#34=FACE_OUTER_BOUND('',#46,.T.);
#35=FACE_OUTER_BOUND('',#47,.T.);
#36=FACE_OUTER_BOUND('',#49,.T.);
#37=FACE_OUTER_BOUND('',#50,.T.);
#38=EDGE_LOOP('',(#106,#107,#108,#109,#110,#111));
#39=EDGE_LOOP('',(#112,#113,#114,#115,#116));
#40=EDGE_LOOP('',(#117,#118,#119,#120,#121));
#41=EDGE_LOOP('',(#122,#123,#124,#125));
#42=EDGE_LOOP('',(#126));
#43=EDGE_LOOP('',(#127));
#44=EDGE_LOOP('',(#128));
#45=EDGE_LOOP('',(#129));
#46=EDGE_LOOP('',(#130,#131,#132,#133));
#47=EDGE_LOOP('',(#134));
#48=EDGE_LOOP('',(#135));
#49=EDGE_LOOP('',(#136,#137,#138,#139));
#50=EDGE_LOOP('',(#140));
#51=EDGE_LOOP('',(#141));
#52=LINE('',#257,#58);
#53=LINE('',#264,#59);
#54=LINE('',#267,#60);
#55=LINE('',#273,#61);
#56=LINE('',#282,#62);
#57=LINE('',#289,#63);
#58=VECTOR('',#206,13.85);
#59=VECTOR('',#215,14.85);
#60=VECTOR('',#218,14.85);
#61=VECTOR('',#225,5.);
#62=VECTOR('',#238,5.);
#63=VECTOR('',#247,16.85);
#64=CIRCLE('',#177,14.85);
#65=CIRCLE('',#178,14.85);
#66=CIRCLE('',#179,12.85);
#67=CIRCLE('',#180,12.85);
#68=CIRCLE('',#182,14.85);
#69=CIRCLE('',#184,12.85);
#70=CIRCLE('',#186,7.);
#71=CIRCLE('',#187,7.);
#72=CIRCLE('',#190,5.);
#73=CIRCLE('',#192,5.);
#74=CIRCLE('',#194,16.85);
#75=CIRCLE('',#196,16.85);
#76=VERTEX_POINT('',#252);
#77=VERTEX_POINT('',#253);
#78=VERTEX_POINT('',#256);
#79=VERTEX_POINT('',#258);
#80=VERTEX_POINT('',#262);
#81=VERTEX_POINT('',#266);
#82=VERTEX_POINT('',#270);
#83=VERTEX_POINT('',#272);
#84=VERTEX_POINT('',#277);
#85=VERTEX_POINT('',#280);
#86=VERTEX_POINT('',#284);
#87=VERTEX_POINT('',#287);
#88=EDGE_CURVE('',#76,#77,#64,.T.);
#89=EDGE_CURVE('',#77,#76,#65,.T.);
#90=EDGE_CURVE('',#76,#78,#52,.T.);
#91=EDGE_CURVE('',#78,#79,#66,.T.);
#92=EDGE_CURVE('',#79,#78,#67,.T.);
#93=EDGE_CURVE('',#80,#80,#68,.T.);
#94=EDGE_CURVE('',#80,#77,#53,.T.);
#95=EDGE_CURVE('',#79,#81,#54,.T.);
#96=EDGE_CURVE('',#81,#81,#69,.T.);
#97=EDGE_CURVE('',#82,#82,#70,.T.);
#98=EDGE_CURVE('',#82,#83,#55,.T.);
#99=EDGE_CURVE('',#83,#83,#71,.T.);
#100=EDGE_CURVE('',#84,#84,#72,.T.);
#101=EDGE_CURVE('',#85,#85,#73,.T.);
#102=EDGE_CURVE('',#85,#84,#56,.T.);
#103=EDGE_CURVE('',#86,#86,#74,.T.);
#104=EDGE_CURVE('',#87,#87,#75,.T.);
#105=EDGE_CURVE('',#87,#86,#57,.T.);
#106=ORIENTED_EDGE('',*,*,#88,.T.);
#107=ORIENTED_EDGE('',*,*,#89,.T.);
#108=ORIENTED_EDGE('',*,*,#90,.T.);
#109=ORIENTED_EDGE('',*,*,#91,.T.);
#110=ORIENTED_EDGE('',*,*,#92,.T.);
#111=ORIENTED_EDGE('',*,*,#90,.F.);
#112=ORIENTED_EDGE('',*,*,#93,.F.);
#113=ORIENTED_EDGE('',*,*,#94,.T.);
#114=ORIENTED_EDGE('',*,*,#88,.F.);
#115=ORIENTED_EDGE('',*,*,#89,.F.);
#116=ORIENTED_EDGE('',*,*,#94,.F.);
#117=ORIENTED_EDGE('',*,*,#91,.F.);
#118=ORIENTED_EDGE('',*,*,#92,.F.);
#119=ORIENTED_EDGE('',*,*,#95,.T.);
#120=ORIENTED_EDGE('',*,*,#96,.T.);
#121=ORIENTED_EDGE('',*,*,#95,.F.);
#122=ORIENTED_EDGE('',*,*,#97,.F.);
#123=ORIENTED_EDGE('',*,*,#98,.T.);
#124=ORIENTED_EDGE('',*,*,#99,.T.);
#125=ORIENTED_EDGE('',*,*,#98,.F.);
#126=ORIENTED_EDGE('',*,*,#96,.F.);
#127=ORIENTED_EDGE('',*,*,#99,.F.);
#128=ORIENTED_EDGE('',*,*,#97,.T.);
#129=ORIENTED_EDGE('',*,*,#100,.T.);
#130=ORIENTED_EDGE('',*,*,#101,.F.);
#131=ORIENTED_EDGE('',*,*,#102,.T.);
#132=ORIENTED_EDGE('',*,*,#100,.F.);
#133=ORIENTED_EDGE('',*,*,#102,.F.);
#134=ORIENTED_EDGE('',*,*,#103,.F.);
#135=ORIENTED_EDGE('',*,*,#93,.T.);
#136=ORIENTED_EDGE('',*,*,#104,.F.);
#137=ORIENTED_EDGE('',*,*,#105,.T.);
#138=ORIENTED_EDGE('',*,*,#103,.T.);
#139=ORIENTED_EDGE('',*,*,#105,.F.);
#140=ORIENTED_EDGE('',*,*,#104,.T.);
#141=ORIENTED_EDGE('',*,*,#101,.T.);
#142=CONICAL_SURFACE('',#176,13.85,0.785398163397448);
#143=ADVANCED_FACE('',(#28),#142,.T.);
#144=ADVANCED_FACE('',(#29),#23,.T.);
#145=ADVANCED_FACE('',(#30),#24,.F.);
#146=ADVANCED_FACE('',(#31),#25,.T.);
#147=ADVANCED_FACE('',(#32,#15),#19,.F.);
#148=ADVANCED_FACE('',(#33,#16),#20,.F.);
#149=ADVANCED_FACE('',(#34),#26,.F.);
#150=ADVANCED_FACE('',(#35,#17),#21,.F.);
#151=ADVANCED_FACE('',(#36),#27,.T.);
#152=ADVANCED_FACE('',(#37,#18),#22,.T.);
#153=CLOSED_SHELL('',(#143,#144,#145,#146,#147,#148,#149,#150,#151,#152));
#154=DERIVED_UNIT_ELEMENT(#157,1.);
#155=DERIVED_UNIT_ELEMENT(#296,-3.);
#156=DIMENSIONAL_EXPONENTS(1.,0.,0.,0.,0.,0.,0.);
#157=(
CONVERSION_BASED_UNIT('gram',#159)
MASS_UNIT()
NAMED_UNIT(#156)
);
#158=(
MASS_UNIT()
NAMED_UNIT(*)
SI_UNIT(.KILO.,.GRAM.)
);
#159=MASS_MEASURE_WITH_UNIT(MASS_MEASURE(0.001),#158);
#160=DERIVED_UNIT((#154,#155));
#161=MEASURE_REPRESENTATION_ITEM('density measure',
POSITIVE_RATIO_MEASURE(8.),#160);
#162=PROPERTY_DEFINITION_REPRESENTATION(#167,#164);
#163=PROPERTY_DEFINITION_REPRESENTATION(#168,#165);
#164=REPRESENTATION('material name',(#166),#293);
#165=REPRESENTATION('density',(#161),#293);
#166=DESCRIPTIVE_REPRESENTATION_ITEM('Edelstahl AISI 304',
'Edelstahl AISI 304');
#167=PROPERTY_DEFINITION('material property','material name',#303);
#168=PROPERTY_DEFINITION('material property','density of part',#303);
#169=DATE_TIME_ROLE('creation_date');
#170=APPLIED_DATE_AND_TIME_ASSIGNMENT(#171,#169,(#303));
#171=DATE_AND_TIME(#172,#173);
#172=CALENDAR_DATE(2021,17,6);
#173=LOCAL_TIME(0,0,0.,#174);
#174=COORDINATED_UNIVERSAL_TIME_OFFSET(0,0,.BEHIND.);
#175=AXIS2_PLACEMENT_3D('placement',#250,#198,#199);
#176=AXIS2_PLACEMENT_3D('',#251,#200,#201);
#177=AXIS2_PLACEMENT_3D('',#254,#202,#203);
#178=AXIS2_PLACEMENT_3D('',#255,#204,#205);
#179=AXIS2_PLACEMENT_3D('',#259,#207,#208);
#180=AXIS2_PLACEMENT_3D('',#260,#209,#210);
#181=AXIS2_PLACEMENT_3D('',#261,#211,#212);
#182=AXIS2_PLACEMENT_3D('',#263,#213,#214);
#183=AXIS2_PLACEMENT_3D('',#265,#216,#217);
#184=AXIS2_PLACEMENT_3D('',#268,#219,#220);
#185=AXIS2_PLACEMENT_3D('',#269,#221,#222);
#186=AXIS2_PLACEMENT_3D('',#271,#223,#224);
#187=AXIS2_PLACEMENT_3D('',#274,#226,#227);
#188=AXIS2_PLACEMENT_3D('',#275,#228,#229);
#189=AXIS2_PLACEMENT_3D('',#276,#230,#231);
#190=AXIS2_PLACEMENT_3D('',#278,#232,#233);
#191=AXIS2_PLACEMENT_3D('',#279,#234,#235);
#192=AXIS2_PLACEMENT_3D('',#281,#236,#237);
#193=AXIS2_PLACEMENT_3D('',#283,#239,#240);
#194=AXIS2_PLACEMENT_3D('',#285,#241,#242);
#195=AXIS2_PLACEMENT_3D('',#286,#243,#244);
#196=AXIS2_PLACEMENT_3D('',#288,#245,#246);
#197=AXIS2_PLACEMENT_3D('',#290,#248,#249);
#198=DIRECTION('axis',(0.,0.,1.));
#199=DIRECTION('refdir',(1.,0.,0.));
#200=DIRECTION('center_axis',(0.,1.,0.));
#201=DIRECTION('ref_axis',(1.,0.,0.));
#202=DIRECTION('center_axis',(0.,-1.,0.));
#203=DIRECTION('ref_axis',(1.,0.,0.));
#204=DIRECTION('center_axis',(0.,-1.,0.));
#205=DIRECTION('ref_axis',(1.,0.,0.));
#206=DIRECTION('',(0.707106781186547,-0.707106781186548,-8.65956056235493E-17));
#207=DIRECTION('center_axis',(0.,1.,0.));
#208=DIRECTION('ref_axis',(-1.,0.,0.));
#209=DIRECTION('center_axis',(0.,1.,0.));
#210=DIRECTION('ref_axis',(-1.,0.,0.));
#211=DIRECTION('center_axis',(0.,1.,0.));
#212=DIRECTION('ref_axis',(-1.,0.,0.));
#213=DIRECTION('center_axis',(0.,1.,0.));
#214=DIRECTION('ref_axis',(-1.,0.,0.));
#215=DIRECTION('',(0.,-1.,0.));
#216=DIRECTION('center_axis',(0.,1.,0.));
#217=DIRECTION('ref_axis',(-1.,0.,0.));
#218=DIRECTION('',(0.,1.,0.));
#219=DIRECTION('center_axis',(0.,1.,0.));
#220=DIRECTION('ref_axis',(-1.,0.,0.));
#221=DIRECTION('center_axis',(0.,-1.,0.));
#222=DIRECTION('ref_axis',(1.,0.,0.));
#223=DIRECTION('center_axis',(0.,-1.,0.));
#224=DIRECTION('ref_axis',(1.,0.,0.));
#225=DIRECTION('',(0.,1.,0.));
#226=DIRECTION('center_axis',(0.,-1.,0.));
#227=DIRECTION('ref_axis',(1.,0.,0.));
#228=DIRECTION('center_axis',(0.,1.,0.));
#229=DIRECTION('ref_axis',(0.,0.,1.));
#230=DIRECTION('center_axis',(0.,1.,0.));
#231=DIRECTION('ref_axis',(0.,0.,1.));
#232=DIRECTION('center_axis',(0.,1.,0.));
#233=DIRECTION('ref_axis',(1.,0.,0.));
#234=DIRECTION('center_axis',(0.,-1.,0.));
#235=DIRECTION('ref_axis',(1.,0.,0.));
#236=DIRECTION('center_axis',(0.,-1.,0.));
#237=DIRECTION('ref_axis',(1.,0.,0.));
#238=DIRECTION('',(0.,-1.,0.));
#239=DIRECTION('center_axis',(0.,1.,0.));
#240=DIRECTION('ref_axis',(0.,0.,1.));
#241=DIRECTION('center_axis',(0.,1.,0.));
#242=DIRECTION('ref_axis',(1.,0.,0.));
#243=DIRECTION('center_axis',(0.,1.,0.));
#244=DIRECTION('ref_axis',(1.,0.,0.));
#245=DIRECTION('center_axis',(0.,1.,0.));
#246=DIRECTION('ref_axis',(1.,0.,0.));
#247=DIRECTION('',(0.,-1.,0.));
#248=DIRECTION('center_axis',(0.,1.,0.));
#249=DIRECTION('ref_axis',(0.,0.,1.));
#250=CARTESIAN_POINT('',(0.,0.,0.));
#251=CARTESIAN_POINT('Origin',(0.,1.,0.));
#252=CARTESIAN_POINT('',(-14.85,2.,-1.81860049673382E-15));
#253=CARTESIAN_POINT('',(14.85,2.,-1.81860049673382E-15));
#254=CARTESIAN_POINT('Origin',(0.,2.,0.));
#255=CARTESIAN_POINT('Origin',(0.,2.,0.));
#256=CARTESIAN_POINT('',(-12.85,0.,1.57367113690435E-15));
#257=CARTESIAN_POINT('',(-13.85,1.,1.69613581681908E-15));
#258=CARTESIAN_POINT('',(12.85,0.,-1.57367113690435E-15));
#259=CARTESIAN_POINT('Origin',(0.,0.,0.));
#260=CARTESIAN_POINT('Origin',(0.,0.,0.));
#261=CARTESIAN_POINT('Origin',(0.,0.,0.));
#262=CARTESIAN_POINT('',(14.85,20.,-1.81860049673382E-15));
#263=CARTESIAN_POINT('Origin',(0.,20.,0.));
#264=CARTESIAN_POINT('',(14.85,0.,-1.81860049673382E-15));
#265=CARTESIAN_POINT('Origin',(0.,0.,0.));
#266=CARTESIAN_POINT('',(12.85,21.5,-1.57367113690435E-15));
#267=CARTESIAN_POINT('',(12.85,0.,-1.57367113690435E-15));
#268=CARTESIAN_POINT('Origin',(0.,21.5,0.));
#269=CARTESIAN_POINT('Origin',(0.,23.5,0.));
#270=CARTESIAN_POINT('',(-7.,0.,-8.57252759403147E-16));
#271=CARTESIAN_POINT('Origin',(0.,0.,0.));
#272=CARTESIAN_POINT('',(-7.,21.5,-8.57252759403147E-16));
#273=CARTESIAN_POINT('',(-7.,23.5,-8.57252759403147E-16));
#274=CARTESIAN_POINT('Origin',(0.,21.5,0.));
#275=CARTESIAN_POINT('Origin',(0.,21.5,0.));
#276=CARTESIAN_POINT('Origin',(0.,0.,0.));
#277=CARTESIAN_POINT('',(-5.,0.,6.12323399573677E-16));
#278=CARTESIAN_POINT('Origin',(0.,0.,0.));
#279=CARTESIAN_POINT('Origin',(0.,23.5,0.));
#280=CARTESIAN_POINT('',(-5.,23.5,-6.12323399573677E-16));
#281=CARTESIAN_POINT('Origin',(0.,23.5,0.));
#282=CARTESIAN_POINT('',(-5.,23.5,-6.12323399573677E-16));
#283=CARTESIAN_POINT('Origin',(0.,20.,0.));
#284=CARTESIAN_POINT('',(-16.85,20.,2.06352985656329E-15));
#285=CARTESIAN_POINT('Origin',(0.,20.,0.));
#286=CARTESIAN_POINT('Origin',(0.,20.,0.));
#287=CARTESIAN_POINT('',(-16.85,23.5,2.06352985656329E-15));
#288=CARTESIAN_POINT('Origin',(0.,23.5,0.));
#289=CARTESIAN_POINT('',(-16.85,20.,2.06352985656329E-15));
#290=CARTESIAN_POINT('Origin',(0.,23.5,0.));
#291=UNCERTAINTY_MEASURE_WITH_UNIT(LENGTH_MEASURE(0.01),#295,
'DISTANCE_ACCURACY_VALUE',
'Maximum model space distance between geometric entities at asserted c
onnectivities');
#292=UNCERTAINTY_MEASURE_WITH_UNIT(LENGTH_MEASURE(0.01),#295,
'DISTANCE_ACCURACY_VALUE',
'Maximum model space distance between geometric entities at asserted c
onnectivities');
#293=(
GEOMETRIC_REPRESENTATION_CONTEXT(3)
GLOBAL_UNCERTAINTY_ASSIGNED_CONTEXT((#291))
GLOBAL_UNIT_ASSIGNED_CONTEXT((#295,#297,#298))
REPRESENTATION_CONTEXT('','3D')
);
#294=(
GEOMETRIC_REPRESENTATION_CONTEXT(3)
GLOBAL_UNCERTAINTY_ASSIGNED_CONTEXT((#292))
GLOBAL_UNIT_ASSIGNED_CONTEXT((#295,#297,#298))
REPRESENTATION_CONTEXT('','3D')
);
#295=(
LENGTH_UNIT()
NAMED_UNIT(*)
SI_UNIT(.MILLI.,.METRE.)
);
#296=(
LENGTH_UNIT()
NAMED_UNIT(*)
SI_UNIT(.CENTI.,.METRE.)
);
#297=(
NAMED_UNIT(*)
PLANE_ANGLE_UNIT()
SI_UNIT($,.RADIAN.)
);
#298=(
NAMED_UNIT(*)
SI_UNIT($,.STERADIAN.)
SOLID_ANGLE_UNIT()
);
#299=SHAPE_DEFINITION_REPRESENTATION(#300,#301);
#300=PRODUCT_DEFINITION_SHAPE('',$,#303);
#301=SHAPE_REPRESENTATION('',(#175),#293);
#302=PRODUCT_DEFINITION_CONTEXT('part definition',#307,'design');
#303=PRODUCT_DEFINITION('41943','41943',#304,#302);
#304=PRODUCT_DEFINITION_FORMATION('',$,#309);
#305=PRODUCT_RELATED_PRODUCT_CATEGORY('41943','41943',(#309));
#306=APPLICATION_PROTOCOL_DEFINITION('international standard',
'automotive_design',2009,#307);
#307=APPLICATION_CONTEXT(
'Core Data for Automotive Mechanical Design Process');
#308=PRODUCT_CONTEXT('part definition',#307,'mechanical');
#309=PRODUCT('41943','41943',$,(#308));
#310=PRESENTATION_STYLE_ASSIGNMENT((#311));
#311=SURFACE_STYLE_USAGE(.BOTH.,#314);
#312=SURFACE_STYLE_RENDERING_WITH_PROPERTIES($,#318,(#313));
#313=SURFACE_STYLE_TRANSPARENT(0.);
#314=SURFACE_SIDE_STYLE('',(#315,#312));
#315=SURFACE_STYLE_FILL_AREA(#316);
#316=FILL_AREA_STYLE('',(#317));
#317=FILL_AREA_STYLE_COLOUR('',#318);
#318=COLOUR_RGB('',0.956862745098039,0.956862745098039,0.956862745098039);
ENDSEC;
END-ISO-10303-21;
