ISO-10303-21;
HEADER;
/* Generated by software containing ST-Developer
 * from STEP Tools, Inc. (www.steptools.com) 
 */

FILE_DESCRIPTION(
/* description */ (''),
/* implementation_level */ '2;1');

FILE_NAME(
/* name */ 
'C:\\Users\\O.Boryczka\\Desktop\\Korrigierte Zeichnungen\\Stecksystem 
V2A\\41945.ipt.step',
/* time_stamp */ '2022-07-18T12:58:01+02:00',
/* author */ ('Abt. Technik'),
/* organization */ (''),
/* preprocessor_version */ 'ST-DEVELOPER v18.1',
/* originating_system */ 'Autodesk Inventor 2022',
/* authorisation */ '');

FILE_SCHEMA (('AUTOMOTIVE_DESIGN { 1 0 10303 214 3 1 1 }'));
ENDSEC;

DATA;
#10=MECHANICAL_DESIGN_GEOMETRIC_PRESENTATION_REPRESENTATION('',(#13),#411);
#11=SHAPE_REPRESENTATION_RELATIONSHIP('SRR','None',#418,#12);
#12=ADVANCED_BREP_SHAPE_REPRESENTATION('',(#14),#410);
#13=STYLED_ITEM('',(#427),#14);
#14=MANIFOLD_SOLID_BREP('Volumenk\X\F6rper1',#214);
#15=TOROIDAL_SURFACE('',#253,38.,18.2);
#16=TOROIDAL_SURFACE('',#269,38.,21.2);
#17=FACE_BOUND('',#43,.T.);
#18=FACE_BOUND('',#48,.T.);
#19=FACE_BOUND('',#52,.T.);
#20=FACE_BOUND('',#55,.T.);
#21=FACE_BOUND('',#58,.T.);
#22=PLANE('',#240);
#23=PLANE('',#252);
#24=PLANE('',#259);
#25=PLANE('',#263);
#26=PLANE('',#268);
#27=FACE_OUTER_BOUND('',#41,.T.);
#28=FACE_OUTER_BOUND('',#42,.T.);
#29=FACE_OUTER_BOUND('',#44,.T.);
#30=FACE_OUTER_BOUND('',#45,.T.);
#31=FACE_OUTER_BOUND('',#46,.T.);
#32=FACE_OUTER_BOUND('',#47,.T.);
#33=FACE_OUTER_BOUND('',#49,.T.);
#34=FACE_OUTER_BOUND('',#50,.T.);
#35=FACE_OUTER_BOUND('',#51,.T.);
#36=FACE_OUTER_BOUND('',#53,.T.);
#37=FACE_OUTER_BOUND('',#54,.T.);
#38=FACE_OUTER_BOUND('',#56,.T.);
#39=FACE_OUTER_BOUND('',#57,.T.);
#40=FACE_OUTER_BOUND('',#59,.T.);
#41=EDGE_LOOP('',(#139,#140,#141,#142));
#42=EDGE_LOOP('',(#143));
#43=EDGE_LOOP('',(#144));
#44=EDGE_LOOP('',(#145,#146,#147,#148,#149));
#45=EDGE_LOOP('',(#150,#151,#152,#153));
#46=EDGE_LOOP('',(#154,#155,#156,#157,#158));
#47=EDGE_LOOP('',(#159));
#48=EDGE_LOOP('',(#160));
#49=EDGE_LOOP('',(#161,#162,#163,#164,#165,#166));
#50=EDGE_LOOP('',(#167,#168,#169,#170,#171));
#51=EDGE_LOOP('',(#172));
#52=EDGE_LOOP('',(#173));
#53=EDGE_LOOP('',(#174,#175,#176,#177));
#54=EDGE_LOOP('',(#178));
#55=EDGE_LOOP('',(#179));
#56=EDGE_LOOP('',(#180,#181,#182,#183,#184));
#57=EDGE_LOOP('',(#185));
#58=EDGE_LOOP('',(#186));
#59=EDGE_LOOP('',(#187,#188,#189,#190,#191,#192));
#60=LINE('',#353,#67);
#61=LINE('',#363,#68);
#62=LINE('',#368,#69);
#63=LINE('',#376,#70);
#64=LINE('',#385,#71);
#65=LINE('',#394,#72);
#66=LINE('',#401,#73);
#67=VECTOR('',#277,19.2);
#68=VECTOR('',#290,21.2);
#69=VECTOR('',#295,19.2);
#70=VECTOR('',#304,21.2);
#71=VECTOR('',#317,21.2);
#72=VECTOR('',#328,19.2);
#73=VECTOR('',#337,21.2);
#74=CIRCLE('',#238,19.2);
#75=CIRCLE('',#239,19.2);
#76=CIRCLE('',#241,18.2);
#77=CIRCLE('',#243,18.2);
#78=CIRCLE('',#244,18.2);
#79=CIRCLE('',#246,16.2);
#80=CIRCLE('',#247,16.2);
#81=CIRCLE('',#249,18.2);
#82=CIRCLE('',#250,18.2);
#83=CIRCLE('',#251,18.2);
#84=CIRCLE('',#254,19.8);
#85=CIRCLE('',#256,21.2);
#86=CIRCLE('',#257,21.2);
#87=CIRCLE('',#258,21.2);
#88=CIRCLE('',#261,19.2);
#89=CIRCLE('',#262,19.2);
#90=CIRCLE('',#265,21.2);
#91=CIRCLE('',#266,21.2);
#92=CIRCLE('',#267,21.2);
#93=CIRCLE('',#270,16.8);
#94=VERTEX_POINT('',#350);
#95=VERTEX_POINT('',#352);
#96=VERTEX_POINT('',#356);
#97=VERTEX_POINT('',#359);
#98=VERTEX_POINT('',#360);
#99=VERTEX_POINT('',#365);
#100=VERTEX_POINT('',#367);
#101=VERTEX_POINT('',#371);
#102=VERTEX_POINT('',#372);
#103=VERTEX_POINT('',#375);
#104=VERTEX_POINT('',#382);
#105=VERTEX_POINT('',#384);
#106=VERTEX_POINT('',#386);
#107=VERTEX_POINT('',#391);
#108=VERTEX_POINT('',#393);
#109=VERTEX_POINT('',#398);
#110=VERTEX_POINT('',#400);
#111=VERTEX_POINT('',#402);
#112=EDGE_CURVE('',#94,#94,#74,.T.);
#113=EDGE_CURVE('',#94,#95,#60,.T.);
#114=EDGE_CURVE('',#95,#95,#75,.T.);
#115=EDGE_CURVE('',#96,#96,#76,.T.);
#116=EDGE_CURVE('',#97,#98,#77,.T.);
#117=EDGE_CURVE('',#98,#97,#78,.T.);
#118=EDGE_CURVE('',#97,#96,#61,.T.);
#119=EDGE_CURVE('',#99,#99,#79,.T.);
#120=EDGE_CURVE('',#99,#100,#62,.T.);
#121=EDGE_CURVE('',#100,#100,#80,.T.);
#122=EDGE_CURVE('',#101,#102,#81,.T.);
#123=EDGE_CURVE('',#102,#101,#82,.T.);
#124=EDGE_CURVE('',#102,#103,#63,.T.);
#125=EDGE_CURVE('',#103,#103,#83,.F.);
#126=EDGE_CURVE('',#98,#101,#84,.T.);
#127=EDGE_CURVE('',#104,#104,#85,.T.);
#128=EDGE_CURVE('',#104,#105,#64,.T.);
#129=EDGE_CURVE('',#106,#105,#86,.T.);
#130=EDGE_CURVE('',#105,#106,#87,.T.);
#131=EDGE_CURVE('',#107,#107,#88,.T.);
#132=EDGE_CURVE('',#107,#108,#65,.T.);
#133=EDGE_CURVE('',#108,#108,#89,.T.);
#134=EDGE_CURVE('',#109,#109,#90,.T.);
#135=EDGE_CURVE('',#109,#110,#66,.T.);
#136=EDGE_CURVE('',#110,#111,#91,.T.);
#137=EDGE_CURVE('',#111,#110,#92,.T.);
#138=EDGE_CURVE('',#111,#106,#93,.T.);
#139=ORIENTED_EDGE('',*,*,#112,.F.);
#140=ORIENTED_EDGE('',*,*,#113,.T.);
#141=ORIENTED_EDGE('',*,*,#114,.T.);
#142=ORIENTED_EDGE('',*,*,#113,.F.);
#143=ORIENTED_EDGE('',*,*,#114,.F.);
#144=ORIENTED_EDGE('',*,*,#115,.F.);
#145=ORIENTED_EDGE('',*,*,#116,.T.);
#146=ORIENTED_EDGE('',*,*,#117,.T.);
#147=ORIENTED_EDGE('',*,*,#118,.T.);
#148=ORIENTED_EDGE('',*,*,#115,.T.);
#149=ORIENTED_EDGE('',*,*,#118,.F.);
#150=ORIENTED_EDGE('',*,*,#119,.T.);
#151=ORIENTED_EDGE('',*,*,#120,.T.);
#152=ORIENTED_EDGE('',*,*,#121,.F.);
#153=ORIENTED_EDGE('',*,*,#120,.F.);
#154=ORIENTED_EDGE('',*,*,#122,.F.);
#155=ORIENTED_EDGE('',*,*,#123,.F.);
#156=ORIENTED_EDGE('',*,*,#124,.T.);
#157=ORIENTED_EDGE('',*,*,#125,.T.);
#158=ORIENTED_EDGE('',*,*,#124,.F.);
#159=ORIENTED_EDGE('',*,*,#125,.F.);
#160=ORIENTED_EDGE('',*,*,#119,.F.);
#161=ORIENTED_EDGE('',*,*,#116,.F.);
#162=ORIENTED_EDGE('',*,*,#117,.F.);
#163=ORIENTED_EDGE('',*,*,#126,.T.);
#164=ORIENTED_EDGE('',*,*,#122,.T.);
#165=ORIENTED_EDGE('',*,*,#123,.T.);
#166=ORIENTED_EDGE('',*,*,#126,.F.);
#167=ORIENTED_EDGE('',*,*,#127,.F.);
#168=ORIENTED_EDGE('',*,*,#128,.T.);
#169=ORIENTED_EDGE('',*,*,#129,.F.);
#170=ORIENTED_EDGE('',*,*,#130,.F.);
#171=ORIENTED_EDGE('',*,*,#128,.F.);
#172=ORIENTED_EDGE('',*,*,#127,.T.);
#173=ORIENTED_EDGE('',*,*,#112,.T.);
#174=ORIENTED_EDGE('',*,*,#131,.F.);
#175=ORIENTED_EDGE('',*,*,#132,.T.);
#176=ORIENTED_EDGE('',*,*,#133,.F.);
#177=ORIENTED_EDGE('',*,*,#132,.F.);
#178=ORIENTED_EDGE('',*,*,#131,.T.);
#179=ORIENTED_EDGE('',*,*,#121,.T.);
#180=ORIENTED_EDGE('',*,*,#134,.F.);
#181=ORIENTED_EDGE('',*,*,#135,.T.);
#182=ORIENTED_EDGE('',*,*,#136,.T.);
#183=ORIENTED_EDGE('',*,*,#137,.T.);
#184=ORIENTED_EDGE('',*,*,#135,.F.);
#185=ORIENTED_EDGE('',*,*,#134,.T.);
#186=ORIENTED_EDGE('',*,*,#133,.T.);
#187=ORIENTED_EDGE('',*,*,#137,.F.);
#188=ORIENTED_EDGE('',*,*,#138,.T.);
#189=ORIENTED_EDGE('',*,*,#129,.T.);
#190=ORIENTED_EDGE('',*,*,#130,.T.);
#191=ORIENTED_EDGE('',*,*,#138,.F.);
#192=ORIENTED_EDGE('',*,*,#136,.F.);
#193=CYLINDRICAL_SURFACE('',#237,19.2);
#194=CYLINDRICAL_SURFACE('',#242,18.2);
#195=CYLINDRICAL_SURFACE('',#245,16.2);
#196=CYLINDRICAL_SURFACE('',#248,18.2);
#197=CYLINDRICAL_SURFACE('',#255,21.2);
#198=CYLINDRICAL_SURFACE('',#260,19.2);
#199=CYLINDRICAL_SURFACE('',#264,21.2);
#200=ADVANCED_FACE('',(#27),#193,.F.);
#201=ADVANCED_FACE('',(#28,#17),#22,.T.);
#202=ADVANCED_FACE('',(#29),#194,.F.);
#203=ADVANCED_FACE('',(#30),#195,.F.);
#204=ADVANCED_FACE('',(#31),#196,.F.);
#205=ADVANCED_FACE('',(#32,#18),#23,.F.);
#206=ADVANCED_FACE('',(#33),#15,.F.);
#207=ADVANCED_FACE('',(#34),#197,.T.);
#208=ADVANCED_FACE('',(#35,#19),#24,.T.);
#209=ADVANCED_FACE('',(#36),#198,.T.);
#210=ADVANCED_FACE('',(#37,#20),#25,.T.);
#211=ADVANCED_FACE('',(#38),#199,.T.);
#212=ADVANCED_FACE('',(#39,#21),#26,.T.);
#213=ADVANCED_FACE('',(#40),#16,.T.);
#214=CLOSED_SHELL('',(#200,#201,#202,#203,#204,#205,#206,#207,#208,#209,
#210,#211,#212,#213));
#215=DERIVED_UNIT_ELEMENT(#218,1.);
#216=DERIVED_UNIT_ELEMENT(#413,-3.);
#217=DIMENSIONAL_EXPONENTS(1.,0.,0.,0.,0.,0.,0.);
#218=(
CONVERSION_BASED_UNIT('gram',#220)
MASS_UNIT()
NAMED_UNIT(#217)
);
#219=(
MASS_UNIT()
NAMED_UNIT(*)
SI_UNIT(.KILO.,.GRAM.)
);
#220=MASS_MEASURE_WITH_UNIT(MASS_MEASURE(0.001),#219);
#221=DERIVED_UNIT((#215,#216));
#222=MEASURE_REPRESENTATION_ITEM('density measure',
POSITIVE_RATIO_MEASURE(8.),#221);
#223=PROPERTY_DEFINITION_REPRESENTATION(#228,#225);
#224=PROPERTY_DEFINITION_REPRESENTATION(#229,#226);
#225=REPRESENTATION('material name',(#227),#410);
#226=REPRESENTATION('density',(#222),#410);
#227=DESCRIPTIVE_REPRESENTATION_ITEM('Edelstahl AISI 304',
'Edelstahl AISI 304');
#228=PROPERTY_DEFINITION('material property','material name',#420);
#229=PROPERTY_DEFINITION('material property','density of part',#420);
#230=DATE_TIME_ROLE('creation_date');
#231=APPLIED_DATE_AND_TIME_ASSIGNMENT(#232,#230,(#420));
#232=DATE_AND_TIME(#233,#234);
#233=CALENDAR_DATE(2021,10,6);
#234=LOCAL_TIME(0,0,0.,#235);
#235=COORDINATED_UNIVERSAL_TIME_OFFSET(0,0,.BEHIND.);
#236=AXIS2_PLACEMENT_3D('placement',#348,#271,#272);
#237=AXIS2_PLACEMENT_3D('',#349,#273,#274);
#238=AXIS2_PLACEMENT_3D('',#351,#275,#276);
#239=AXIS2_PLACEMENT_3D('',#354,#278,#279);
#240=AXIS2_PLACEMENT_3D('',#355,#280,#281);
#241=AXIS2_PLACEMENT_3D('',#357,#282,#283);
#242=AXIS2_PLACEMENT_3D('',#358,#284,#285);
#243=AXIS2_PLACEMENT_3D('',#361,#286,#287);
#244=AXIS2_PLACEMENT_3D('',#362,#288,#289);
#245=AXIS2_PLACEMENT_3D('',#364,#291,#292);
#246=AXIS2_PLACEMENT_3D('',#366,#293,#294);
#247=AXIS2_PLACEMENT_3D('',#369,#296,#297);
#248=AXIS2_PLACEMENT_3D('',#370,#298,#299);
#249=AXIS2_PLACEMENT_3D('',#373,#300,#301);
#250=AXIS2_PLACEMENT_3D('',#374,#302,#303);
#251=AXIS2_PLACEMENT_3D('',#377,#305,#306);
#252=AXIS2_PLACEMENT_3D('',#378,#307,#308);
#253=AXIS2_PLACEMENT_3D('',#379,#309,#310);
#254=AXIS2_PLACEMENT_3D('',#380,#311,#312);
#255=AXIS2_PLACEMENT_3D('',#381,#313,#314);
#256=AXIS2_PLACEMENT_3D('',#383,#315,#316);
#257=AXIS2_PLACEMENT_3D('',#387,#318,#319);
#258=AXIS2_PLACEMENT_3D('',#388,#320,#321);
#259=AXIS2_PLACEMENT_3D('',#389,#322,#323);
#260=AXIS2_PLACEMENT_3D('',#390,#324,#325);
#261=AXIS2_PLACEMENT_3D('',#392,#326,#327);
#262=AXIS2_PLACEMENT_3D('',#395,#329,#330);
#263=AXIS2_PLACEMENT_3D('',#396,#331,#332);
#264=AXIS2_PLACEMENT_3D('',#397,#333,#334);
#265=AXIS2_PLACEMENT_3D('',#399,#335,#336);
#266=AXIS2_PLACEMENT_3D('',#403,#338,#339);
#267=AXIS2_PLACEMENT_3D('',#404,#340,#341);
#268=AXIS2_PLACEMENT_3D('',#405,#342,#343);
#269=AXIS2_PLACEMENT_3D('',#406,#344,#345);
#270=AXIS2_PLACEMENT_3D('',#407,#346,#347);
#271=DIRECTION('axis',(0.,0.,1.));
#272=DIRECTION('refdir',(1.,0.,0.));
#273=DIRECTION('center_axis',(0.,1.,0.));
#274=DIRECTION('ref_axis',(1.,0.,0.));
#275=DIRECTION('center_axis',(0.,1.,0.));
#276=DIRECTION('ref_axis',(1.,0.,0.));
#277=DIRECTION('',(0.,1.,0.));
#278=DIRECTION('center_axis',(0.,1.,0.));
#279=DIRECTION('ref_axis',(1.,0.,0.));
#280=DIRECTION('center_axis',(0.,-1.,0.));
#281=DIRECTION('ref_axis',(0.,0.,-1.));
#282=DIRECTION('center_axis',(0.,-1.,0.));
#283=DIRECTION('ref_axis',(1.,0.,0.));
#284=DIRECTION('center_axis',(0.,-1.,0.));
#285=DIRECTION('ref_axis',(1.,0.,0.));
#286=DIRECTION('center_axis',(0.,1.,0.));
#287=DIRECTION('ref_axis',(-1.,0.,0.));
#288=DIRECTION('center_axis',(0.,1.,0.));
#289=DIRECTION('ref_axis',(-1.,0.,0.));
#290=DIRECTION('',(0.,-1.,0.));
#291=DIRECTION('center_axis',(0.,0.,-1.));
#292=DIRECTION('ref_axis',(-1.,0.,0.));
#293=DIRECTION('center_axis',(0.,-6.12323399573677E-17,1.));
#294=DIRECTION('ref_axis',(-1.,0.,0.));
#295=DIRECTION('',(0.,0.,-1.));
#296=DIRECTION('center_axis',(0.,-6.12323399573677E-17,1.));
#297=DIRECTION('ref_axis',(-1.,0.,0.));
#298=DIRECTION('center_axis',(0.,0.,-1.));
#299=DIRECTION('ref_axis',(-1.,0.,0.));
#300=DIRECTION('center_axis',(0.,6.12323399573677E-17,-1.));
#301=DIRECTION('ref_axis',(-1.,0.,0.));
#302=DIRECTION('center_axis',(0.,6.12323399573677E-17,-1.));
#303=DIRECTION('ref_axis',(-1.,0.,0.));
#304=DIRECTION('',(0.,0.,-1.));
#305=DIRECTION('center_axis',(0.,-6.12323399573677E-17,1.));
#306=DIRECTION('ref_axis',(-1.,0.,0.));
#307=DIRECTION('center_axis',(0.,6.12323399573677E-17,-1.));
#308=DIRECTION('ref_axis',(-1.,0.,0.));
#309=DIRECTION('center_axis',(-1.,0.,0.));
#310=DIRECTION('ref_axis',(0.,0.,1.));
#311=DIRECTION('center_axis',(-1.,0.,0.));
#312=DIRECTION('ref_axis',(0.,0.,1.));
#313=DIRECTION('center_axis',(0.,-1.,0.));
#314=DIRECTION('ref_axis',(1.,0.,0.));
#315=DIRECTION('center_axis',(0.,-1.,0.));
#316=DIRECTION('ref_axis',(1.,0.,0.));
#317=DIRECTION('',(0.,1.,0.));
#318=DIRECTION('center_axis',(0.,1.,0.));
#319=DIRECTION('ref_axis',(-1.,0.,0.));
#320=DIRECTION('center_axis',(0.,1.,0.));
#321=DIRECTION('ref_axis',(-1.,0.,0.));
#322=DIRECTION('center_axis',(0.,-1.,0.));
#323=DIRECTION('ref_axis',(0.,0.,-1.));
#324=DIRECTION('center_axis',(0.,0.,-1.));
#325=DIRECTION('ref_axis',(-1.,0.,0.));
#326=DIRECTION('center_axis',(0.,6.12323399573677E-17,-1.));
#327=DIRECTION('ref_axis',(-1.,0.,0.));
#328=DIRECTION('',(0.,0.,1.));
#329=DIRECTION('center_axis',(0.,-6.12323399573677E-17,1.));
#330=DIRECTION('ref_axis',(-1.,0.,0.));
#331=DIRECTION('center_axis',(0.,6.12323399573677E-17,-1.));
#332=DIRECTION('ref_axis',(-1.,0.,0.));
#333=DIRECTION('center_axis',(0.,0.,-1.));
#334=DIRECTION('ref_axis',(-1.,0.,0.));
#335=DIRECTION('center_axis',(0.,6.12323399573677E-17,-1.));
#336=DIRECTION('ref_axis',(-1.,0.,0.));
#337=DIRECTION('',(0.,0.,1.));
#338=DIRECTION('center_axis',(0.,6.12323399573677E-17,-1.));
#339=DIRECTION('ref_axis',(-1.,0.,0.));
#340=DIRECTION('center_axis',(0.,6.12323399573677E-17,-1.));
#341=DIRECTION('ref_axis',(-1.,0.,0.));
#342=DIRECTION('center_axis',(0.,6.12323399573677E-17,-1.));
#343=DIRECTION('ref_axis',(-1.,0.,0.));
#344=DIRECTION('center_axis',(-1.,0.,0.));
#345=DIRECTION('ref_axis',(0.,0.,1.));
#346=DIRECTION('center_axis',(1.,0.,0.));
#347=DIRECTION('ref_axis',(0.,0.,1.));
#348=CARTESIAN_POINT('',(0.,0.,0.));
#349=CARTESIAN_POINT('Origin',(0.,-30.8,0.));
#350=CARTESIAN_POINT('',(-19.2,-30.8,2.35132185436292E-15));
#351=CARTESIAN_POINT('Origin',(0.,-30.8,0.));
#352=CARTESIAN_POINT('',(-19.2,-10.8,2.35132185436292E-15));
#353=CARTESIAN_POINT('',(-19.2,-30.8,2.35132185436292E-15));
#354=CARTESIAN_POINT('Origin',(0.,-10.8,0.));
#355=CARTESIAN_POINT('Origin',(0.,-10.8,0.));
#356=CARTESIAN_POINT('',(-18.2,-10.8,-2.22885717444818E-15));
#357=CARTESIAN_POINT('Origin',(0.,-10.8,0.));
#358=CARTESIAN_POINT('Origin',(0.,0.,0.));
#359=CARTESIAN_POINT('',(-18.2,0.,0.));
#360=CARTESIAN_POINT('',(2.22885717444818E-15,0.,-18.2));
#361=CARTESIAN_POINT('Origin',(0.,0.,0.));
#362=CARTESIAN_POINT('Origin',(0.,0.,0.));
#363=CARTESIAN_POINT('',(-18.2,0.,-2.22885717444818E-15));
#364=CARTESIAN_POINT('Origin',(0.,38.,-42.8));
#365=CARTESIAN_POINT('',(16.2,38.,-39.8));
#366=CARTESIAN_POINT('Origin',(0.,38.,-39.8));
#367=CARTESIAN_POINT('',(16.2,38.,-67.8));
#368=CARTESIAN_POINT('',(16.2,38.,-42.8));
#369=CARTESIAN_POINT('Origin',(0.,38.,-67.8));
#370=CARTESIAN_POINT('Origin',(0.,38.,-38.));
#371=CARTESIAN_POINT('',(2.22885717444818E-15,19.8,-38.));
#372=CARTESIAN_POINT('',(18.2,38.,-38.));
#373=CARTESIAN_POINT('Origin',(0.,38.,-38.));
#374=CARTESIAN_POINT('Origin',(0.,38.,-38.));
#375=CARTESIAN_POINT('',(18.2,38.,-39.8));
#376=CARTESIAN_POINT('',(18.2,38.,-38.));
#377=CARTESIAN_POINT('Origin',(0.,38.,-39.8));
#378=CARTESIAN_POINT('Origin',(0.,38.,-39.8));
#379=CARTESIAN_POINT('Origin',(0.,0.,-38.));
#380=CARTESIAN_POINT('Origin',(2.22885717444818E-15,0.,-38.));
#381=CARTESIAN_POINT('Origin',(0.,0.,0.));
#382=CARTESIAN_POINT('',(-21.2,-30.8,-2.59625121419239E-15));
#383=CARTESIAN_POINT('Origin',(0.,-30.8,0.));
#384=CARTESIAN_POINT('',(-21.2,0.,0.));
#385=CARTESIAN_POINT('',(-21.2,0.,-2.59625121419239E-15));
#386=CARTESIAN_POINT('',(2.59625121419239E-15,0.,-21.2));
#387=CARTESIAN_POINT('Origin',(0.,0.,0.));
#388=CARTESIAN_POINT('Origin',(0.,0.,0.));
#389=CARTESIAN_POINT('Origin',(0.,-30.8,0.));
#390=CARTESIAN_POINT('Origin',(0.,38.,-42.8));
#391=CARTESIAN_POINT('',(19.2,38.,-67.8));
#392=CARTESIAN_POINT('Origin',(0.,38.,-67.8));
#393=CARTESIAN_POINT('',(19.2,38.,-42.8));
#394=CARTESIAN_POINT('',(19.2,38.,-42.8));
#395=CARTESIAN_POINT('Origin',(0.,38.,-42.8));
#396=CARTESIAN_POINT('Origin',(0.,38.,-67.8));
#397=CARTESIAN_POINT('Origin',(0.,38.,-38.));
#398=CARTESIAN_POINT('',(21.2,38.,-42.8));
#399=CARTESIAN_POINT('Origin',(0.,38.,-42.8));
#400=CARTESIAN_POINT('',(21.2,38.,-38.));
#401=CARTESIAN_POINT('',(21.2,38.,-38.));
#402=CARTESIAN_POINT('',(2.59625121419239E-15,16.8,-38.));
#403=CARTESIAN_POINT('Origin',(0.,38.,-38.));
#404=CARTESIAN_POINT('Origin',(0.,38.,-38.));
#405=CARTESIAN_POINT('Origin',(0.,38.,-42.8));
#406=CARTESIAN_POINT('Origin',(0.,0.,-38.));
#407=CARTESIAN_POINT('Origin',(2.59625121419239E-15,0.,-38.));
#408=UNCERTAINTY_MEASURE_WITH_UNIT(LENGTH_MEASURE(0.01),#412,
'DISTANCE_ACCURACY_VALUE',
'Maximum model space distance between geometric entities at asserted c
onnectivities');
#409=UNCERTAINTY_MEASURE_WITH_UNIT(LENGTH_MEASURE(0.01),#412,
'DISTANCE_ACCURACY_VALUE',
'Maximum model space distance between geometric entities at asserted c
onnectivities');
#410=(
GEOMETRIC_REPRESENTATION_CONTEXT(3)
GLOBAL_UNCERTAINTY_ASSIGNED_CONTEXT((#408))
GLOBAL_UNIT_ASSIGNED_CONTEXT((#412,#414,#415))
REPRESENTATION_CONTEXT('','3D')
);
#411=(
GEOMETRIC_REPRESENTATION_CONTEXT(3)
GLOBAL_UNCERTAINTY_ASSIGNED_CONTEXT((#409))
GLOBAL_UNIT_ASSIGNED_CONTEXT((#412,#414,#415))
REPRESENTATION_CONTEXT('','3D')
);
#412=(
LENGTH_UNIT()
NAMED_UNIT(*)
SI_UNIT(.MILLI.,.METRE.)
);
#413=(
LENGTH_UNIT()
NAMED_UNIT(*)
SI_UNIT(.CENTI.,.METRE.)
);
#414=(
NAMED_UNIT(*)
PLANE_ANGLE_UNIT()
SI_UNIT($,.RADIAN.)
);
#415=(
NAMED_UNIT(*)
SI_UNIT($,.STERADIAN.)
SOLID_ANGLE_UNIT()
);
#416=SHAPE_DEFINITION_REPRESENTATION(#417,#418);
#417=PRODUCT_DEFINITION_SHAPE('',$,#420);
#418=SHAPE_REPRESENTATION('',(#236),#410);
#419=PRODUCT_DEFINITION_CONTEXT('part definition',#424,'design');
#420=PRODUCT_DEFINITION('41945','41945',#421,#419);
#421=PRODUCT_DEFINITION_FORMATION('',$,#426);
#422=PRODUCT_RELATED_PRODUCT_CATEGORY('41945','41945',(#426));
#423=APPLICATION_PROTOCOL_DEFINITION('international standard',
'automotive_design',2009,#424);
#424=APPLICATION_CONTEXT(
'Core Data for Automotive Mechanical Design Process');
#425=PRODUCT_CONTEXT('part definition',#424,'mechanical');
#426=PRODUCT('41945','41945',$,(#425));
#427=PRESENTATION_STYLE_ASSIGNMENT((#428));
#428=SURFACE_STYLE_USAGE(.BOTH.,#431);
#429=SURFACE_STYLE_RENDERING_WITH_PROPERTIES($,#435,(#430));
#430=SURFACE_STYLE_TRANSPARENT(0.);
#431=SURFACE_SIDE_STYLE('',(#432,#429));
#432=SURFACE_STYLE_FILL_AREA(#433);
#433=FILL_AREA_STYLE('',(#434));
#434=FILL_AREA_STYLE_COLOUR('',#435);
#435=COLOUR_RGB('',0.956862745098039,0.956862745098039,0.956862745098039);
ENDSEC;
END-ISO-10303-21;
