ISO-10303-21;
HEADER;
/* Generated by software containing ST-Developer
 * from STEP Tools, Inc. (www.steptools.com) 
 */

FILE_DESCRIPTION(
/* description */ (''),
/* implementation_level */ '2;1');

FILE_NAME(
/* name */ 
'C:\\Users\\O.Boryczka\\Desktop\\Korrigierte Zeichnungen\\Bodenplatten
 V2A\\41946.ipt.step',
/* time_stamp */ '2022-07-18T12:53:37+02:00',
/* author */ ('Abt. Technik'),
/* organization */ (''),
/* preprocessor_version */ 'ST-DEVELOPER v18.1',
/* originating_system */ 'Autodesk Inventor 2022',
/* authorisation */ '');

FILE_SCHEMA (('AUTOMOTIVE_DESIGN { 1 0 10303 214 3 1 1 }'));
ENDSEC;

DATA;
#10=MECHANICAL_DESIGN_GEOMETRIC_PRESENTATION_REPRESENTATION('',(#13),#337);
#11=SHAPE_REPRESENTATION_RELATIONSHIP('SRR','None',#344,#12);
#12=ADVANCED_BREP_SHAPE_REPRESENTATION('',(#14),#336);
#13=STYLED_ITEM('',(#353),#14);
#14=MANIFOLD_SOLID_BREP('Volumenk\X\F6rper1',#180);
#15=FACE_BOUND('',#47,.T.);
#16=FACE_BOUND('',#55,.T.);
#17=FACE_BOUND('',#56,.T.);
#18=FACE_BOUND('',#57,.T.);
#19=FACE_BOUND('',#58,.T.);
#20=FACE_BOUND('',#60,.T.);
#21=FACE_BOUND('',#61,.T.);
#22=FACE_BOUND('',#62,.T.);
#23=PLANE('',#209);
#24=PLANE('',#213);
#25=PLANE('',#226);
#26=PLANE('',#227);
#27=CYLINDRICAL_SURFACE('',#207,19.2);
#28=CYLINDRICAL_SURFACE('',#211,17.7);
#29=CYLINDRICAL_SURFACE('',#214,5.5);
#30=CYLINDRICAL_SURFACE('',#217,5.5);
#31=CYLINDRICAL_SURFACE('',#220,5.5);
#32=CYLINDRICAL_SURFACE('',#223,50.);
#33=FACE_OUTER_BOUND('',#44,.T.);
#34=FACE_OUTER_BOUND('',#45,.T.);
#35=FACE_OUTER_BOUND('',#46,.T.);
#36=FACE_OUTER_BOUND('',#48,.T.);
#37=FACE_OUTER_BOUND('',#49,.T.);
#38=FACE_OUTER_BOUND('',#50,.T.);
#39=FACE_OUTER_BOUND('',#51,.T.);
#40=FACE_OUTER_BOUND('',#52,.T.);
#41=FACE_OUTER_BOUND('',#53,.T.);
#42=FACE_OUTER_BOUND('',#54,.T.);
#43=FACE_OUTER_BOUND('',#59,.T.);
#44=EDGE_LOOP('',(#126,#127,#128,#129,#130));
#45=EDGE_LOOP('',(#131,#132,#133,#134,#135));
#46=EDGE_LOOP('',(#136));
#47=EDGE_LOOP('',(#137));
#48=EDGE_LOOP('',(#138,#139,#140,#141));
#49=EDGE_LOOP('',(#142));
#50=EDGE_LOOP('',(#143,#144,#145,#146));
#51=EDGE_LOOP('',(#147,#148,#149,#150));
#52=EDGE_LOOP('',(#151,#152,#153,#154));
#53=EDGE_LOOP('',(#155,#156,#157,#158));
#54=EDGE_LOOP('',(#159));
#55=EDGE_LOOP('',(#160));
#56=EDGE_LOOP('',(#161));
#57=EDGE_LOOP('',(#162));
#58=EDGE_LOOP('',(#163));
#59=EDGE_LOOP('',(#164));
#60=EDGE_LOOP('',(#165));
#61=EDGE_LOOP('',(#166));
#62=EDGE_LOOP('',(#167));
#63=LINE('',#292,#70);
#64=LINE('',#298,#71);
#65=LINE('',#305,#72);
#66=LINE('',#312,#73);
#67=LINE('',#318,#74);
#68=LINE('',#324,#75);
#69=LINE('',#330,#76);
#70=VECTOR('',#234,18.7);
#71=VECTOR('',#241,19.2);
#72=VECTOR('',#250,17.7);
#73=VECTOR('',#259,5.5);
#74=VECTOR('',#266,5.5);
#75=VECTOR('',#273,5.5);
#76=VECTOR('',#280,50.);
#77=CIRCLE('',#204,18.2);
#78=CIRCLE('',#205,19.2);
#79=CIRCLE('',#206,19.2);
#80=CIRCLE('',#208,19.2);
#81=CIRCLE('',#210,17.7);
#82=CIRCLE('',#212,17.7);
#83=CIRCLE('',#215,5.5);
#84=CIRCLE('',#216,5.5);
#85=CIRCLE('',#218,5.5);
#86=CIRCLE('',#219,5.5);
#87=CIRCLE('',#221,5.5);
#88=CIRCLE('',#222,5.5);
#89=CIRCLE('',#224,50.);
#90=CIRCLE('',#225,50.);
#91=VERTEX_POINT('',#289);
#92=VERTEX_POINT('',#291);
#93=VERTEX_POINT('',#293);
#94=VERTEX_POINT('',#297);
#95=VERTEX_POINT('',#301);
#96=VERTEX_POINT('',#304);
#97=VERTEX_POINT('',#309);
#98=VERTEX_POINT('',#311);
#99=VERTEX_POINT('',#315);
#100=VERTEX_POINT('',#317);
#101=VERTEX_POINT('',#321);
#102=VERTEX_POINT('',#323);
#103=VERTEX_POINT('',#327);
#104=VERTEX_POINT('',#329);
#105=EDGE_CURVE('',#91,#91,#77,.T.);
#106=EDGE_CURVE('',#91,#92,#63,.T.);
#107=EDGE_CURVE('',#92,#93,#78,.T.);
#108=EDGE_CURVE('',#93,#92,#79,.T.);
#109=EDGE_CURVE('',#93,#94,#64,.T.);
#110=EDGE_CURVE('',#94,#94,#80,.T.);
#111=EDGE_CURVE('',#95,#95,#81,.T.);
#112=EDGE_CURVE('',#95,#96,#65,.T.);
#113=EDGE_CURVE('',#96,#96,#82,.T.);
#114=EDGE_CURVE('',#97,#97,#83,.T.);
#115=EDGE_CURVE('',#97,#98,#66,.T.);
#116=EDGE_CURVE('',#98,#98,#84,.T.);
#117=EDGE_CURVE('',#99,#99,#85,.T.);
#118=EDGE_CURVE('',#99,#100,#67,.T.);
#119=EDGE_CURVE('',#100,#100,#86,.T.);
#120=EDGE_CURVE('',#101,#101,#87,.T.);
#121=EDGE_CURVE('',#101,#102,#68,.T.);
#122=EDGE_CURVE('',#102,#102,#88,.T.);
#123=EDGE_CURVE('',#103,#103,#89,.T.);
#124=EDGE_CURVE('',#103,#104,#69,.T.);
#125=EDGE_CURVE('',#104,#104,#90,.T.);
#126=ORIENTED_EDGE('',*,*,#105,.T.);
#127=ORIENTED_EDGE('',*,*,#106,.T.);
#128=ORIENTED_EDGE('',*,*,#107,.T.);
#129=ORIENTED_EDGE('',*,*,#108,.T.);
#130=ORIENTED_EDGE('',*,*,#106,.F.);
#131=ORIENTED_EDGE('',*,*,#107,.F.);
#132=ORIENTED_EDGE('',*,*,#108,.F.);
#133=ORIENTED_EDGE('',*,*,#109,.T.);
#134=ORIENTED_EDGE('',*,*,#110,.F.);
#135=ORIENTED_EDGE('',*,*,#109,.F.);
#136=ORIENTED_EDGE('',*,*,#105,.F.);
#137=ORIENTED_EDGE('',*,*,#111,.T.);
#138=ORIENTED_EDGE('',*,*,#111,.F.);
#139=ORIENTED_EDGE('',*,*,#112,.T.);
#140=ORIENTED_EDGE('',*,*,#113,.T.);
#141=ORIENTED_EDGE('',*,*,#112,.F.);
#142=ORIENTED_EDGE('',*,*,#113,.F.);
#143=ORIENTED_EDGE('',*,*,#114,.F.);
#144=ORIENTED_EDGE('',*,*,#115,.T.);
#145=ORIENTED_EDGE('',*,*,#116,.T.);
#146=ORIENTED_EDGE('',*,*,#115,.F.);
#147=ORIENTED_EDGE('',*,*,#117,.F.);
#148=ORIENTED_EDGE('',*,*,#118,.T.);
#149=ORIENTED_EDGE('',*,*,#119,.T.);
#150=ORIENTED_EDGE('',*,*,#118,.F.);
#151=ORIENTED_EDGE('',*,*,#120,.F.);
#152=ORIENTED_EDGE('',*,*,#121,.T.);
#153=ORIENTED_EDGE('',*,*,#122,.T.);
#154=ORIENTED_EDGE('',*,*,#121,.F.);
#155=ORIENTED_EDGE('',*,*,#123,.F.);
#156=ORIENTED_EDGE('',*,*,#124,.T.);
#157=ORIENTED_EDGE('',*,*,#125,.T.);
#158=ORIENTED_EDGE('',*,*,#124,.F.);
#159=ORIENTED_EDGE('',*,*,#123,.T.);
#160=ORIENTED_EDGE('',*,*,#110,.T.);
#161=ORIENTED_EDGE('',*,*,#120,.T.);
#162=ORIENTED_EDGE('',*,*,#117,.T.);
#163=ORIENTED_EDGE('',*,*,#114,.T.);
#164=ORIENTED_EDGE('',*,*,#125,.F.);
#165=ORIENTED_EDGE('',*,*,#122,.F.);
#166=ORIENTED_EDGE('',*,*,#119,.F.);
#167=ORIENTED_EDGE('',*,*,#116,.F.);
#168=CONICAL_SURFACE('',#203,18.7,0.785398163397451);
#169=ADVANCED_FACE('',(#33),#168,.T.);
#170=ADVANCED_FACE('',(#34),#27,.T.);
#171=ADVANCED_FACE('',(#35,#15),#23,.T.);
#172=ADVANCED_FACE('',(#36),#28,.F.);
#173=ADVANCED_FACE('',(#37),#24,.T.);
#174=ADVANCED_FACE('',(#38),#29,.F.);
#175=ADVANCED_FACE('',(#39),#30,.F.);
#176=ADVANCED_FACE('',(#40),#31,.F.);
#177=ADVANCED_FACE('',(#41),#32,.T.);
#178=ADVANCED_FACE('',(#42,#16,#17,#18,#19),#25,.T.);
#179=ADVANCED_FACE('',(#43,#20,#21,#22),#26,.F.);
#180=CLOSED_SHELL('',(#169,#170,#171,#172,#173,#174,#175,#176,#177,#178,
#179));
#181=DERIVED_UNIT_ELEMENT(#184,1.);
#182=DERIVED_UNIT_ELEMENT(#339,-3.);
#183=DIMENSIONAL_EXPONENTS(1.,0.,0.,0.,0.,0.,0.);
#184=(
CONVERSION_BASED_UNIT('gram',#186)
MASS_UNIT()
NAMED_UNIT(#183)
);
#185=(
MASS_UNIT()
NAMED_UNIT(*)
SI_UNIT(.KILO.,.GRAM.)
);
#186=MASS_MEASURE_WITH_UNIT(MASS_MEASURE(0.001),#185);
#187=DERIVED_UNIT((#181,#182));
#188=MEASURE_REPRESENTATION_ITEM('density measure',
POSITIVE_RATIO_MEASURE(8.),#187);
#189=PROPERTY_DEFINITION_REPRESENTATION(#194,#191);
#190=PROPERTY_DEFINITION_REPRESENTATION(#195,#192);
#191=REPRESENTATION('material name',(#193),#336);
#192=REPRESENTATION('density',(#188),#336);
#193=DESCRIPTIVE_REPRESENTATION_ITEM('Edelstahl AISI 304',
'Edelstahl AISI 304');
#194=PROPERTY_DEFINITION('material property','material name',#346);
#195=PROPERTY_DEFINITION('material property','density of part',#346);
#196=DATE_TIME_ROLE('creation_date');
#197=APPLIED_DATE_AND_TIME_ASSIGNMENT(#198,#196,(#346));
#198=DATE_AND_TIME(#199,#200);
#199=CALENDAR_DATE(2021,17,6);
#200=LOCAL_TIME(0,0,0.,#201);
#201=COORDINATED_UNIVERSAL_TIME_OFFSET(0,0,.BEHIND.);
#202=AXIS2_PLACEMENT_3D('placement',#287,#228,#229);
#203=AXIS2_PLACEMENT_3D('',#288,#230,#231);
#204=AXIS2_PLACEMENT_3D('',#290,#232,#233);
#205=AXIS2_PLACEMENT_3D('',#294,#235,#236);
#206=AXIS2_PLACEMENT_3D('',#295,#237,#238);
#207=AXIS2_PLACEMENT_3D('',#296,#239,#240);
#208=AXIS2_PLACEMENT_3D('',#299,#242,#243);
#209=AXIS2_PLACEMENT_3D('',#300,#244,#245);
#210=AXIS2_PLACEMENT_3D('',#302,#246,#247);
#211=AXIS2_PLACEMENT_3D('',#303,#248,#249);
#212=AXIS2_PLACEMENT_3D('',#306,#251,#252);
#213=AXIS2_PLACEMENT_3D('',#307,#253,#254);
#214=AXIS2_PLACEMENT_3D('',#308,#255,#256);
#215=AXIS2_PLACEMENT_3D('',#310,#257,#258);
#216=AXIS2_PLACEMENT_3D('',#313,#260,#261);
#217=AXIS2_PLACEMENT_3D('',#314,#262,#263);
#218=AXIS2_PLACEMENT_3D('',#316,#264,#265);
#219=AXIS2_PLACEMENT_3D('',#319,#267,#268);
#220=AXIS2_PLACEMENT_3D('',#320,#269,#270);
#221=AXIS2_PLACEMENT_3D('',#322,#271,#272);
#222=AXIS2_PLACEMENT_3D('',#325,#274,#275);
#223=AXIS2_PLACEMENT_3D('',#326,#276,#277);
#224=AXIS2_PLACEMENT_3D('',#328,#278,#279);
#225=AXIS2_PLACEMENT_3D('',#331,#281,#282);
#226=AXIS2_PLACEMENT_3D('',#332,#283,#284);
#227=AXIS2_PLACEMENT_3D('',#333,#285,#286);
#228=DIRECTION('axis',(0.,0.,1.));
#229=DIRECTION('refdir',(1.,0.,0.));
#230=DIRECTION('center_axis',(0.,-1.,0.));
#231=DIRECTION('ref_axis',(-1.,0.,0.));
#232=DIRECTION('center_axis',(0.,-1.,0.));
#233=DIRECTION('ref_axis',(-1.,0.,0.));
#234=DIRECTION('',(0.707106781186549,-0.707106781186546,-8.65956056235495E-17));
#235=DIRECTION('center_axis',(0.,1.,0.));
#236=DIRECTION('ref_axis',(-1.,0.,0.));
#237=DIRECTION('center_axis',(0.,1.,0.));
#238=DIRECTION('ref_axis',(-1.,0.,0.));
#239=DIRECTION('center_axis',(0.,1.,0.));
#240=DIRECTION('ref_axis',(1.,0.,0.));
#241=DIRECTION('',(0.,-1.,0.));
#242=DIRECTION('center_axis',(0.,-1.,0.));
#243=DIRECTION('ref_axis',(1.,0.,0.));
#244=DIRECTION('center_axis',(0.,1.,0.));
#245=DIRECTION('ref_axis',(0.,0.,1.));
#246=DIRECTION('center_axis',(0.,-1.,0.));
#247=DIRECTION('ref_axis',(1.,0.,0.));
#248=DIRECTION('center_axis',(0.,-1.,0.));
#249=DIRECTION('ref_axis',(1.,0.,0.));
#250=DIRECTION('',(0.,-1.,0.));
#251=DIRECTION('center_axis',(0.,-1.,0.));
#252=DIRECTION('ref_axis',(1.,0.,0.));
#253=DIRECTION('center_axis',(0.,1.,0.));
#254=DIRECTION('ref_axis',(0.,0.,1.));
#255=DIRECTION('center_axis',(0.,1.,0.));
#256=DIRECTION('ref_axis',(1.,0.,0.));
#257=DIRECTION('center_axis',(0.,-1.,0.));
#258=DIRECTION('ref_axis',(1.,0.,0.));
#259=DIRECTION('',(0.,-1.,0.));
#260=DIRECTION('center_axis',(0.,-1.,0.));
#261=DIRECTION('ref_axis',(1.,0.,0.));
#262=DIRECTION('center_axis',(0.,1.,0.));
#263=DIRECTION('ref_axis',(1.,0.,0.));
#264=DIRECTION('center_axis',(0.,-1.,0.));
#265=DIRECTION('ref_axis',(1.,0.,0.));
#266=DIRECTION('',(0.,-1.,0.));
#267=DIRECTION('center_axis',(0.,-1.,0.));
#268=DIRECTION('ref_axis',(1.,0.,0.));
#269=DIRECTION('center_axis',(0.,1.,0.));
#270=DIRECTION('ref_axis',(1.,0.,0.));
#271=DIRECTION('center_axis',(0.,-1.,0.));
#272=DIRECTION('ref_axis',(1.,0.,0.));
#273=DIRECTION('',(0.,-1.,0.));
#274=DIRECTION('center_axis',(0.,-1.,0.));
#275=DIRECTION('ref_axis',(1.,0.,0.));
#276=DIRECTION('center_axis',(0.,1.,0.));
#277=DIRECTION('ref_axis',(-1.,0.,0.));
#278=DIRECTION('center_axis',(0.,1.,0.));
#279=DIRECTION('ref_axis',(-1.,0.,0.));
#280=DIRECTION('',(0.,-1.,0.));
#281=DIRECTION('center_axis',(0.,1.,0.));
#282=DIRECTION('ref_axis',(-1.,0.,0.));
#283=DIRECTION('center_axis',(0.,1.,0.));
#284=DIRECTION('ref_axis',(0.,0.,1.));
#285=DIRECTION('center_axis',(0.,1.,0.));
#286=DIRECTION('ref_axis',(0.,0.,1.));
#287=CARTESIAN_POINT('',(0.,0.,0.));
#288=CARTESIAN_POINT('Origin',(0.,57.5,0.));
#289=CARTESIAN_POINT('',(18.2,58.,2.22885717444818E-15));
#290=CARTESIAN_POINT('Origin',(0.,58.,0.));
#291=CARTESIAN_POINT('',(19.2,57.,-2.35132185436292E-15));
#292=CARTESIAN_POINT('',(18.7,57.5,-2.29008951440555E-15));
#293=CARTESIAN_POINT('',(-19.2,57.,2.35132185436292E-15));
#294=CARTESIAN_POINT('Origin',(0.,57.,0.));
#295=CARTESIAN_POINT('Origin',(0.,57.,0.));
#296=CARTESIAN_POINT('Origin',(0.,8.,0.));
#297=CARTESIAN_POINT('',(-19.2,8.,2.35132185436292E-15));
#298=CARTESIAN_POINT('',(-19.2,8.,2.35132185436292E-15));
#299=CARTESIAN_POINT('Origin',(0.,8.,0.));
#300=CARTESIAN_POINT('Origin',(0.,58.,0.));
#301=CARTESIAN_POINT('',(-17.7,58.,-2.16762483449082E-15));
#302=CARTESIAN_POINT('Origin',(0.,58.,0.));
#303=CARTESIAN_POINT('Origin',(0.,58.,0.));
#304=CARTESIAN_POINT('',(-17.7,4.25,-2.16762483449082E-15));
#305=CARTESIAN_POINT('',(-17.7,58.,-2.16762483449082E-15));
#306=CARTESIAN_POINT('Origin',(0.,4.25,0.));
#307=CARTESIAN_POINT('Origin',(0.,4.25,0.));
#308=CARTESIAN_POINT('Origin',(-37.5,0.,0.));
#309=CARTESIAN_POINT('',(-43.,8.,6.73555739531044E-16));
#310=CARTESIAN_POINT('Origin',(-37.5,8.,0.));
#311=CARTESIAN_POINT('',(-43.,0.,6.73555739531044E-16));
#312=CARTESIAN_POINT('',(-43.,0.,6.73555739531044E-16));
#313=CARTESIAN_POINT('Origin',(-37.5,0.,0.));
#314=CARTESIAN_POINT('Origin',(18.75,0.,-32.4759526419165));
#315=CARTESIAN_POINT('',(13.25,8.,-32.4759526419165));
#316=CARTESIAN_POINT('Origin',(18.75,8.,-32.4759526419165));
#317=CARTESIAN_POINT('',(13.25,0.,-32.4759526419165));
#318=CARTESIAN_POINT('',(13.25,0.,-32.4759526419165));
#319=CARTESIAN_POINT('Origin',(18.75,0.,-32.4759526419165));
#320=CARTESIAN_POINT('Origin',(18.75,0.,32.4759526419165));
#321=CARTESIAN_POINT('',(13.25,8.,32.4759526419165));
#322=CARTESIAN_POINT('Origin',(18.75,8.,32.4759526419165));
#323=CARTESIAN_POINT('',(13.25,0.,32.4759526419165));
#324=CARTESIAN_POINT('',(13.25,0.,32.4759526419165));
#325=CARTESIAN_POINT('Origin',(18.75,0.,32.4759526419165));
#326=CARTESIAN_POINT('Origin',(0.,0.,0.));
#327=CARTESIAN_POINT('',(50.,8.,-6.12323399573677E-15));
#328=CARTESIAN_POINT('Origin',(0.,8.,0.));
#329=CARTESIAN_POINT('',(50.,0.,-6.12323399573677E-15));
#330=CARTESIAN_POINT('',(50.,0.,-6.12323399573677E-15));
#331=CARTESIAN_POINT('Origin',(0.,0.,0.));
#332=CARTESIAN_POINT('Origin',(0.,8.,0.));
#333=CARTESIAN_POINT('Origin',(0.,0.,0.));
#334=UNCERTAINTY_MEASURE_WITH_UNIT(LENGTH_MEASURE(0.01),#338,
'DISTANCE_ACCURACY_VALUE',
'Maximum model space distance between geometric entities at asserted c
onnectivities');
#335=UNCERTAINTY_MEASURE_WITH_UNIT(LENGTH_MEASURE(0.01),#338,
'DISTANCE_ACCURACY_VALUE',
'Maximum model space distance between geometric entities at asserted c
onnectivities');
#336=(
GEOMETRIC_REPRESENTATION_CONTEXT(3)
GLOBAL_UNCERTAINTY_ASSIGNED_CONTEXT((#334))
GLOBAL_UNIT_ASSIGNED_CONTEXT((#338,#340,#341))
REPRESENTATION_CONTEXT('','3D')
);
#337=(
GEOMETRIC_REPRESENTATION_CONTEXT(3)
GLOBAL_UNCERTAINTY_ASSIGNED_CONTEXT((#335))
GLOBAL_UNIT_ASSIGNED_CONTEXT((#338,#340,#341))
REPRESENTATION_CONTEXT('','3D')
);
#338=(
LENGTH_UNIT()
NAMED_UNIT(*)
SI_UNIT(.MILLI.,.METRE.)
);
#339=(
LENGTH_UNIT()
NAMED_UNIT(*)
SI_UNIT(.CENTI.,.METRE.)
);
#340=(
NAMED_UNIT(*)
PLANE_ANGLE_UNIT()
SI_UNIT($,.RADIAN.)
);
#341=(
NAMED_UNIT(*)
SI_UNIT($,.STERADIAN.)
SOLID_ANGLE_UNIT()
);
#342=SHAPE_DEFINITION_REPRESENTATION(#343,#344);
#343=PRODUCT_DEFINITION_SHAPE('',$,#346);
#344=SHAPE_REPRESENTATION('',(#202),#336);
#345=PRODUCT_DEFINITION_CONTEXT('part definition',#350,'design');
#346=PRODUCT_DEFINITION('41946','41946',#347,#345);
#347=PRODUCT_DEFINITION_FORMATION('',$,#352);
#348=PRODUCT_RELATED_PRODUCT_CATEGORY('41946','41946',(#352));
#349=APPLICATION_PROTOCOL_DEFINITION('international standard',
'automotive_design',2009,#350);
#350=APPLICATION_CONTEXT(
'Core Data for Automotive Mechanical Design Process');
#351=PRODUCT_CONTEXT('part definition',#350,'mechanical');
#352=PRODUCT('41946','41946',$,(#351));
#353=PRESENTATION_STYLE_ASSIGNMENT((#354));
#354=SURFACE_STYLE_USAGE(.BOTH.,#357);
#355=SURFACE_STYLE_RENDERING_WITH_PROPERTIES($,#361,(#356));
#356=SURFACE_STYLE_TRANSPARENT(0.);
#357=SURFACE_SIDE_STYLE('',(#358,#355));
#358=SURFACE_STYLE_FILL_AREA(#359);
#359=FILL_AREA_STYLE('',(#360));
#360=FILL_AREA_STYLE_COLOUR('',#361);
#361=COLOUR_RGB('',0.956862745098039,0.956862745098039,0.956862745098039);
ENDSEC;
END-ISO-10303-21;
