ISO-10303-21;
HEADER;
/* Generated by software containing ST-Developer
 * from STEP Tools, Inc. (www.steptools.com) 
 */

FILE_DESCRIPTION(
/* description */ (''),
/* implementation_level */ '2;1');

FILE_NAME(
/* name */ 
'C:\\Users\\O.Boryczka\\Desktop\\Korrigierte Zeichnungen\\Abschlussb\X\F6
gen V2A\\41948.ipt.step',
/* time_stamp */ '2022-07-18T12:51:46+02:00',
/* author */ ('Abt. Technik'),
/* organization */ (''),
/* preprocessor_version */ 'ST-DEVELOPER v18.1',
/* originating_system */ 'Autodesk Inventor 2022',
/* authorisation */ '');

FILE_SCHEMA (('AUTOMOTIVE_DESIGN { 1 0 10303 214 3 1 1 }'));
ENDSEC;

DATA;
#10=MECHANICAL_DESIGN_GEOMETRIC_PRESENTATION_REPRESENTATION('',(#13),#372);
#11=SHAPE_REPRESENTATION_RELATIONSHIP('SRR','None',#379,#12);
#12=ADVANCED_BREP_SHAPE_REPRESENTATION('',(#14),#371);
#13=STYLED_ITEM('',(#388),#14);
#14=MANIFOLD_SOLID_BREP('Volumenk\X\F6rper1',#191);
#15=TOROIDAL_SURFACE('',#227,35.,14.85);
#16=TOROIDAL_SURFACE('',#243,35.,16.85);
#17=FACE_BOUND('',#43,.T.);
#18=FACE_BOUND('',#49,.T.);
#19=FACE_BOUND('',#52,.T.);
#20=PLANE('',#218);
#21=PLANE('',#226);
#22=PLANE('',#233);
#23=PLANE('',#237);
#24=PLANE('',#242);
#25=FACE_OUTER_BOUND('',#38,.T.);
#26=FACE_OUTER_BOUND('',#39,.T.);
#27=FACE_OUTER_BOUND('',#40,.T.);
#28=FACE_OUTER_BOUND('',#41,.T.);
#29=FACE_OUTER_BOUND('',#42,.T.);
#30=FACE_OUTER_BOUND('',#44,.T.);
#31=FACE_OUTER_BOUND('',#45,.T.);
#32=FACE_OUTER_BOUND('',#46,.T.);
#33=FACE_OUTER_BOUND('',#47,.T.);
#34=FACE_OUTER_BOUND('',#48,.T.);
#35=FACE_OUTER_BOUND('',#50,.T.);
#36=FACE_OUTER_BOUND('',#51,.T.);
#37=FACE_OUTER_BOUND('',#53,.T.);
#38=EDGE_LOOP('',(#124,#125,#126,#127,#128));
#39=EDGE_LOOP('',(#129));
#40=EDGE_LOOP('',(#130,#131,#132,#133));
#41=EDGE_LOOP('',(#134,#135,#136,#137,#138));
#42=EDGE_LOOP('',(#139));
#43=EDGE_LOOP('',(#140));
#44=EDGE_LOOP('',(#141,#142,#143,#144,#145,#146));
#45=EDGE_LOOP('',(#147,#148,#149,#150,#151));
#46=EDGE_LOOP('',(#152));
#47=EDGE_LOOP('',(#153,#154,#155,#156));
#48=EDGE_LOOP('',(#157));
#49=EDGE_LOOP('',(#158));
#50=EDGE_LOOP('',(#159,#160,#161,#162,#163));
#51=EDGE_LOOP('',(#164));
#52=EDGE_LOOP('',(#165));
#53=EDGE_LOOP('',(#166,#167,#168,#169,#170,#171));
#54=LINE('',#322,#60);
#55=LINE('',#329,#61);
#56=LINE('',#337,#62);
#57=LINE('',#346,#63);
#58=LINE('',#355,#64);
#59=LINE('',#362,#65);
#60=VECTOR('',#253,16.85);
#61=VECTOR('',#262,14.85);
#62=VECTOR('',#271,16.85);
#63=VECTOR('',#284,16.85);
#64=VECTOR('',#295,14.85);
#65=VECTOR('',#304,16.85);
#66=CIRCLE('',#215,14.85);
#67=CIRCLE('',#216,14.85);
#68=CIRCLE('',#217,14.85);
#69=CIRCLE('',#220,12.85);
#70=CIRCLE('',#221,12.85);
#71=CIRCLE('',#223,14.85);
#72=CIRCLE('',#224,14.85);
#73=CIRCLE('',#225,14.85);
#74=CIRCLE('',#228,20.15);
#75=CIRCLE('',#230,16.85);
#76=CIRCLE('',#231,16.85);
#77=CIRCLE('',#232,16.85);
#78=CIRCLE('',#235,14.85);
#79=CIRCLE('',#236,14.85);
#80=CIRCLE('',#239,16.85);
#81=CIRCLE('',#240,16.85);
#82=CIRCLE('',#241,16.85);
#83=CIRCLE('',#244,18.15);
#84=VERTEX_POINT('',#317);
#85=VERTEX_POINT('',#318);
#86=VERTEX_POINT('',#321);
#87=VERTEX_POINT('',#326);
#88=VERTEX_POINT('',#328);
#89=VERTEX_POINT('',#332);
#90=VERTEX_POINT('',#333);
#91=VERTEX_POINT('',#336);
#92=VERTEX_POINT('',#343);
#93=VERTEX_POINT('',#345);
#94=VERTEX_POINT('',#347);
#95=VERTEX_POINT('',#352);
#96=VERTEX_POINT('',#354);
#97=VERTEX_POINT('',#359);
#98=VERTEX_POINT('',#361);
#99=VERTEX_POINT('',#363);
#100=EDGE_CURVE('',#84,#85,#66,.T.);
#101=EDGE_CURVE('',#85,#84,#67,.T.);
#102=EDGE_CURVE('',#85,#86,#54,.T.);
#103=EDGE_CURVE('',#86,#86,#68,.F.);
#104=EDGE_CURVE('',#87,#87,#69,.T.);
#105=EDGE_CURVE('',#87,#88,#55,.T.);
#106=EDGE_CURVE('',#88,#88,#70,.T.);
#107=EDGE_CURVE('',#89,#90,#71,.T.);
#108=EDGE_CURVE('',#90,#89,#72,.T.);
#109=EDGE_CURVE('',#90,#91,#56,.T.);
#110=EDGE_CURVE('',#91,#91,#73,.F.);
#111=EDGE_CURVE('',#89,#84,#74,.T.);
#112=EDGE_CURVE('',#92,#92,#75,.T.);
#113=EDGE_CURVE('',#92,#93,#57,.T.);
#114=EDGE_CURVE('',#93,#94,#76,.T.);
#115=EDGE_CURVE('',#94,#93,#77,.T.);
#116=EDGE_CURVE('',#95,#95,#78,.T.);
#117=EDGE_CURVE('',#95,#96,#58,.T.);
#118=EDGE_CURVE('',#96,#96,#79,.T.);
#119=EDGE_CURVE('',#97,#97,#80,.T.);
#120=EDGE_CURVE('',#97,#98,#59,.T.);
#121=EDGE_CURVE('',#98,#99,#81,.T.);
#122=EDGE_CURVE('',#99,#98,#82,.T.);
#123=EDGE_CURVE('',#94,#99,#83,.T.);
#124=ORIENTED_EDGE('',*,*,#100,.F.);
#125=ORIENTED_EDGE('',*,*,#101,.F.);
#126=ORIENTED_EDGE('',*,*,#102,.T.);
#127=ORIENTED_EDGE('',*,*,#103,.T.);
#128=ORIENTED_EDGE('',*,*,#102,.F.);
#129=ORIENTED_EDGE('',*,*,#103,.F.);
#130=ORIENTED_EDGE('',*,*,#104,.T.);
#131=ORIENTED_EDGE('',*,*,#105,.T.);
#132=ORIENTED_EDGE('',*,*,#106,.F.);
#133=ORIENTED_EDGE('',*,*,#105,.F.);
#134=ORIENTED_EDGE('',*,*,#107,.F.);
#135=ORIENTED_EDGE('',*,*,#108,.F.);
#136=ORIENTED_EDGE('',*,*,#109,.T.);
#137=ORIENTED_EDGE('',*,*,#110,.T.);
#138=ORIENTED_EDGE('',*,*,#109,.F.);
#139=ORIENTED_EDGE('',*,*,#110,.F.);
#140=ORIENTED_EDGE('',*,*,#104,.F.);
#141=ORIENTED_EDGE('',*,*,#107,.T.);
#142=ORIENTED_EDGE('',*,*,#108,.T.);
#143=ORIENTED_EDGE('',*,*,#111,.T.);
#144=ORIENTED_EDGE('',*,*,#100,.T.);
#145=ORIENTED_EDGE('',*,*,#101,.T.);
#146=ORIENTED_EDGE('',*,*,#111,.F.);
#147=ORIENTED_EDGE('',*,*,#112,.F.);
#148=ORIENTED_EDGE('',*,*,#113,.T.);
#149=ORIENTED_EDGE('',*,*,#114,.T.);
#150=ORIENTED_EDGE('',*,*,#115,.T.);
#151=ORIENTED_EDGE('',*,*,#113,.F.);
#152=ORIENTED_EDGE('',*,*,#112,.T.);
#153=ORIENTED_EDGE('',*,*,#116,.F.);
#154=ORIENTED_EDGE('',*,*,#117,.T.);
#155=ORIENTED_EDGE('',*,*,#118,.F.);
#156=ORIENTED_EDGE('',*,*,#117,.F.);
#157=ORIENTED_EDGE('',*,*,#116,.T.);
#158=ORIENTED_EDGE('',*,*,#106,.T.);
#159=ORIENTED_EDGE('',*,*,#119,.F.);
#160=ORIENTED_EDGE('',*,*,#120,.T.);
#161=ORIENTED_EDGE('',*,*,#121,.T.);
#162=ORIENTED_EDGE('',*,*,#122,.T.);
#163=ORIENTED_EDGE('',*,*,#120,.F.);
#164=ORIENTED_EDGE('',*,*,#119,.T.);
#165=ORIENTED_EDGE('',*,*,#118,.T.);
#166=ORIENTED_EDGE('',*,*,#115,.F.);
#167=ORIENTED_EDGE('',*,*,#123,.T.);
#168=ORIENTED_EDGE('',*,*,#121,.F.);
#169=ORIENTED_EDGE('',*,*,#122,.F.);
#170=ORIENTED_EDGE('',*,*,#123,.F.);
#171=ORIENTED_EDGE('',*,*,#114,.F.);
#172=CYLINDRICAL_SURFACE('',#214,14.85);
#173=CYLINDRICAL_SURFACE('',#219,12.85);
#174=CYLINDRICAL_SURFACE('',#222,14.85);
#175=CYLINDRICAL_SURFACE('',#229,16.85);
#176=CYLINDRICAL_SURFACE('',#234,14.85);
#177=CYLINDRICAL_SURFACE('',#238,16.85);
#178=ADVANCED_FACE('',(#25),#172,.F.);
#179=ADVANCED_FACE('',(#26),#20,.F.);
#180=ADVANCED_FACE('',(#27),#173,.F.);
#181=ADVANCED_FACE('',(#28),#174,.F.);
#182=ADVANCED_FACE('',(#29,#17),#21,.F.);
#183=ADVANCED_FACE('',(#30),#15,.F.);
#184=ADVANCED_FACE('',(#31),#175,.T.);
#185=ADVANCED_FACE('',(#32),#22,.T.);
#186=ADVANCED_FACE('',(#33),#176,.T.);
#187=ADVANCED_FACE('',(#34,#18),#23,.T.);
#188=ADVANCED_FACE('',(#35),#177,.T.);
#189=ADVANCED_FACE('',(#36,#19),#24,.T.);
#190=ADVANCED_FACE('',(#37),#16,.T.);
#191=CLOSED_SHELL('',(#178,#179,#180,#181,#182,#183,#184,#185,#186,#187,
#188,#189,#190));
#192=DERIVED_UNIT_ELEMENT(#195,1.);
#193=DERIVED_UNIT_ELEMENT(#374,-3.);
#194=DIMENSIONAL_EXPONENTS(1.,0.,0.,0.,0.,0.,0.);
#195=(
CONVERSION_BASED_UNIT('gram',#197)
MASS_UNIT()
NAMED_UNIT(#194)
);
#196=(
MASS_UNIT()
NAMED_UNIT(*)
SI_UNIT(.KILO.,.GRAM.)
);
#197=MASS_MEASURE_WITH_UNIT(MASS_MEASURE(0.001),#196);
#198=DERIVED_UNIT((#192,#193));
#199=MEASURE_REPRESENTATION_ITEM('density measure',
POSITIVE_RATIO_MEASURE(8.),#198);
#200=PROPERTY_DEFINITION_REPRESENTATION(#205,#202);
#201=PROPERTY_DEFINITION_REPRESENTATION(#206,#203);
#202=REPRESENTATION('material name',(#204),#371);
#203=REPRESENTATION('density',(#199),#371);
#204=DESCRIPTIVE_REPRESENTATION_ITEM('Edelstahl AISI 304',
'Edelstahl AISI 304');
#205=PROPERTY_DEFINITION('material property','material name',#381);
#206=PROPERTY_DEFINITION('material property','density of part',#381);
#207=DATE_TIME_ROLE('creation_date');
#208=APPLIED_DATE_AND_TIME_ASSIGNMENT(#209,#207,(#381));
#209=DATE_AND_TIME(#210,#211);
#210=CALENDAR_DATE(2021,10,6);
#211=LOCAL_TIME(0,0,0.,#212);
#212=COORDINATED_UNIVERSAL_TIME_OFFSET(0,0,.BEHIND.);
#213=AXIS2_PLACEMENT_3D('placement',#315,#245,#246);
#214=AXIS2_PLACEMENT_3D('',#316,#247,#248);
#215=AXIS2_PLACEMENT_3D('',#319,#249,#250);
#216=AXIS2_PLACEMENT_3D('',#320,#251,#252);
#217=AXIS2_PLACEMENT_3D('',#323,#254,#255);
#218=AXIS2_PLACEMENT_3D('',#324,#256,#257);
#219=AXIS2_PLACEMENT_3D('',#325,#258,#259);
#220=AXIS2_PLACEMENT_3D('',#327,#260,#261);
#221=AXIS2_PLACEMENT_3D('',#330,#263,#264);
#222=AXIS2_PLACEMENT_3D('',#331,#265,#266);
#223=AXIS2_PLACEMENT_3D('',#334,#267,#268);
#224=AXIS2_PLACEMENT_3D('',#335,#269,#270);
#225=AXIS2_PLACEMENT_3D('',#338,#272,#273);
#226=AXIS2_PLACEMENT_3D('',#339,#274,#275);
#227=AXIS2_PLACEMENT_3D('',#340,#276,#277);
#228=AXIS2_PLACEMENT_3D('',#341,#278,#279);
#229=AXIS2_PLACEMENT_3D('',#342,#280,#281);
#230=AXIS2_PLACEMENT_3D('',#344,#282,#283);
#231=AXIS2_PLACEMENT_3D('',#348,#285,#286);
#232=AXIS2_PLACEMENT_3D('',#349,#287,#288);
#233=AXIS2_PLACEMENT_3D('',#350,#289,#290);
#234=AXIS2_PLACEMENT_3D('',#351,#291,#292);
#235=AXIS2_PLACEMENT_3D('',#353,#293,#294);
#236=AXIS2_PLACEMENT_3D('',#356,#296,#297);
#237=AXIS2_PLACEMENT_3D('',#357,#298,#299);
#238=AXIS2_PLACEMENT_3D('',#358,#300,#301);
#239=AXIS2_PLACEMENT_3D('',#360,#302,#303);
#240=AXIS2_PLACEMENT_3D('',#364,#305,#306);
#241=AXIS2_PLACEMENT_3D('',#365,#307,#308);
#242=AXIS2_PLACEMENT_3D('',#366,#309,#310);
#243=AXIS2_PLACEMENT_3D('',#367,#311,#312);
#244=AXIS2_PLACEMENT_3D('',#368,#313,#314);
#245=DIRECTION('axis',(0.,0.,1.));
#246=DIRECTION('refdir',(1.,0.,0.));
#247=DIRECTION('center_axis',(0.,-1.,0.));
#248=DIRECTION('ref_axis',(1.,0.,0.));
#249=DIRECTION('center_axis',(0.,-1.,0.));
#250=DIRECTION('ref_axis',(-1.,0.,0.));
#251=DIRECTION('center_axis',(0.,-1.,0.));
#252=DIRECTION('ref_axis',(-1.,0.,0.));
#253=DIRECTION('',(0.,-1.,0.));
#254=DIRECTION('center_axis',(0.,1.,0.));
#255=DIRECTION('ref_axis',(1.,0.,0.));
#256=DIRECTION('center_axis',(0.,-1.,0.));
#257=DIRECTION('ref_axis',(0.,0.,-1.));
#258=DIRECTION('center_axis',(0.,0.,-1.));
#259=DIRECTION('ref_axis',(-1.,0.,0.));
#260=DIRECTION('center_axis',(0.,-6.12323399573677E-17,1.));
#261=DIRECTION('ref_axis',(-1.,0.,0.));
#262=DIRECTION('',(0.,0.,-1.));
#263=DIRECTION('center_axis',(0.,-6.12323399573677E-17,1.));
#264=DIRECTION('ref_axis',(-1.,0.,0.));
#265=DIRECTION('center_axis',(0.,0.,-1.));
#266=DIRECTION('ref_axis',(-1.,0.,0.));
#267=DIRECTION('center_axis',(0.,6.12323399573677E-17,-1.));
#268=DIRECTION('ref_axis',(-1.,0.,0.));
#269=DIRECTION('center_axis',(0.,6.12323399573677E-17,-1.));
#270=DIRECTION('ref_axis',(-1.,0.,0.));
#271=DIRECTION('',(0.,0.,-1.));
#272=DIRECTION('center_axis',(0.,-6.12323399573677E-17,1.));
#273=DIRECTION('ref_axis',(-1.,0.,0.));
#274=DIRECTION('center_axis',(0.,6.12323399573677E-17,-1.));
#275=DIRECTION('ref_axis',(-1.,0.,0.));
#276=DIRECTION('center_axis',(1.,0.,0.));
#277=DIRECTION('ref_axis',(0.,0.,-1.));
#278=DIRECTION('center_axis',(1.,0.,0.));
#279=DIRECTION('ref_axis',(0.,0.,-1.));
#280=DIRECTION('center_axis',(0.,-1.,0.));
#281=DIRECTION('ref_axis',(1.,0.,0.));
#282=DIRECTION('center_axis',(0.,-1.,0.));
#283=DIRECTION('ref_axis',(1.,0.,0.));
#284=DIRECTION('',(0.,1.,0.));
#285=DIRECTION('center_axis',(0.,-1.,0.));
#286=DIRECTION('ref_axis',(-1.,0.,0.));
#287=DIRECTION('center_axis',(0.,-1.,0.));
#288=DIRECTION('ref_axis',(-1.,0.,0.));
#289=DIRECTION('center_axis',(0.,-1.,0.));
#290=DIRECTION('ref_axis',(0.,0.,-1.));
#291=DIRECTION('center_axis',(0.,0.,-1.));
#292=DIRECTION('ref_axis',(-1.,0.,0.));
#293=DIRECTION('center_axis',(0.,6.12323399573677E-17,-1.));
#294=DIRECTION('ref_axis',(-1.,0.,0.));
#295=DIRECTION('',(0.,0.,1.));
#296=DIRECTION('center_axis',(0.,-6.12323399573677E-17,1.));
#297=DIRECTION('ref_axis',(-1.,0.,0.));
#298=DIRECTION('center_axis',(0.,6.12323399573677E-17,-1.));
#299=DIRECTION('ref_axis',(-1.,0.,0.));
#300=DIRECTION('center_axis',(0.,0.,-1.));
#301=DIRECTION('ref_axis',(-1.,0.,0.));
#302=DIRECTION('center_axis',(0.,6.12323399573677E-17,-1.));
#303=DIRECTION('ref_axis',(-1.,0.,0.));
#304=DIRECTION('',(0.,0.,1.));
#305=DIRECTION('center_axis',(0.,6.12323399573677E-17,-1.));
#306=DIRECTION('ref_axis',(-1.,0.,0.));
#307=DIRECTION('center_axis',(0.,6.12323399573677E-17,-1.));
#308=DIRECTION('ref_axis',(-1.,0.,0.));
#309=DIRECTION('center_axis',(0.,6.12323399573677E-17,-1.));
#310=DIRECTION('ref_axis',(-1.,0.,0.));
#311=DIRECTION('center_axis',(1.,0.,0.));
#312=DIRECTION('ref_axis',(0.,0.,-1.));
#313=DIRECTION('center_axis',(-1.,0.,0.));
#314=DIRECTION('ref_axis',(0.,0.,-1.));
#315=CARTESIAN_POINT('',(0.,0.,0.));
#316=CARTESIAN_POINT('Origin',(0.,0.,0.));
#317=CARTESIAN_POINT('',(-1.81860049673382E-15,0.,-14.85));
#318=CARTESIAN_POINT('',(-14.85,0.,-1.81860049673382E-15));
#319=CARTESIAN_POINT('Origin',(0.,0.,0.));
#320=CARTESIAN_POINT('Origin',(0.,0.,0.));
#321=CARTESIAN_POINT('',(-14.85,-0.15,1.81860049673382E-15));
#322=CARTESIAN_POINT('',(-14.85,0.,-1.81860049673382E-15));
#323=CARTESIAN_POINT('Origin',(0.,-0.15,0.));
#324=CARTESIAN_POINT('Origin',(0.,-0.15,0.));
#325=CARTESIAN_POINT('Origin',(0.,35.,-37.15));
#326=CARTESIAN_POINT('',(12.85,35.,-35.15));
#327=CARTESIAN_POINT('Origin',(0.,35.,-35.15));
#328=CARTESIAN_POINT('',(12.85,35.,-57.15));
#329=CARTESIAN_POINT('',(12.85,35.,-37.15));
#330=CARTESIAN_POINT('Origin',(0.,35.,-57.15));
#331=CARTESIAN_POINT('Origin',(0.,35.,-35.));
#332=CARTESIAN_POINT('',(-1.81860049673382E-15,20.15,-35.));
#333=CARTESIAN_POINT('',(14.85,35.,-35.));
#334=CARTESIAN_POINT('Origin',(0.,35.,-35.));
#335=CARTESIAN_POINT('Origin',(0.,35.,-35.));
#336=CARTESIAN_POINT('',(14.85,35.,-35.15));
#337=CARTESIAN_POINT('',(14.85,35.,-35.));
#338=CARTESIAN_POINT('Origin',(0.,35.,-35.15));
#339=CARTESIAN_POINT('Origin',(0.,35.,-35.15));
#340=CARTESIAN_POINT('Origin',(0.,0.,-35.));
#341=CARTESIAN_POINT('Origin',(-1.81860049673382E-15,0.,-35.));
#342=CARTESIAN_POINT('Origin',(0.,0.,0.));
#343=CARTESIAN_POINT('',(-16.85,-2.15,-2.06352985656329E-15));
#344=CARTESIAN_POINT('Origin',(0.,-2.15,0.));
#345=CARTESIAN_POINT('',(-16.85,0.,-2.06352985656329E-15));
#346=CARTESIAN_POINT('',(-16.85,0.,-2.06352985656329E-15));
#347=CARTESIAN_POINT('',(-2.06352985656329E-15,0.,-16.85));
#348=CARTESIAN_POINT('Origin',(0.,0.,0.));
#349=CARTESIAN_POINT('Origin',(0.,0.,0.));
#350=CARTESIAN_POINT('Origin',(0.,-2.15,0.));
#351=CARTESIAN_POINT('Origin',(0.,35.,-37.15));
#352=CARTESIAN_POINT('',(14.85,35.,-57.15));
#353=CARTESIAN_POINT('Origin',(0.,35.,-57.15));
#354=CARTESIAN_POINT('',(14.85,35.,-37.15));
#355=CARTESIAN_POINT('',(14.85,35.,-37.15));
#356=CARTESIAN_POINT('Origin',(0.,35.,-37.15));
#357=CARTESIAN_POINT('Origin',(0.,35.,-57.15));
#358=CARTESIAN_POINT('Origin',(0.,35.,-35.));
#359=CARTESIAN_POINT('',(16.85,35.,-37.15));
#360=CARTESIAN_POINT('Origin',(0.,35.,-37.15));
#361=CARTESIAN_POINT('',(16.85,35.,-35.));
#362=CARTESIAN_POINT('',(16.85,35.,-35.));
#363=CARTESIAN_POINT('',(-2.06352985656329E-15,18.15,-35.));
#364=CARTESIAN_POINT('Origin',(0.,35.,-35.));
#365=CARTESIAN_POINT('Origin',(0.,35.,-35.));
#366=CARTESIAN_POINT('Origin',(0.,35.,-37.15));
#367=CARTESIAN_POINT('Origin',(0.,0.,-35.));
#368=CARTESIAN_POINT('Origin',(-2.06352985656329E-15,0.,-35.));
#369=UNCERTAINTY_MEASURE_WITH_UNIT(LENGTH_MEASURE(0.01),#373,
'DISTANCE_ACCURACY_VALUE',
'Maximum model space distance between geometric entities at asserted c
onnectivities');
#370=UNCERTAINTY_MEASURE_WITH_UNIT(LENGTH_MEASURE(0.01),#373,
'DISTANCE_ACCURACY_VALUE',
'Maximum model space distance between geometric entities at asserted c
onnectivities');
#371=(
GEOMETRIC_REPRESENTATION_CONTEXT(3)
GLOBAL_UNCERTAINTY_ASSIGNED_CONTEXT((#369))
GLOBAL_UNIT_ASSIGNED_CONTEXT((#373,#375,#376))
REPRESENTATION_CONTEXT('','3D')
);
#372=(
GEOMETRIC_REPRESENTATION_CONTEXT(3)
GLOBAL_UNCERTAINTY_ASSIGNED_CONTEXT((#370))
GLOBAL_UNIT_ASSIGNED_CONTEXT((#373,#375,#376))
REPRESENTATION_CONTEXT('','3D')
);
#373=(
LENGTH_UNIT()
NAMED_UNIT(*)
SI_UNIT(.MILLI.,.METRE.)
);
#374=(
LENGTH_UNIT()
NAMED_UNIT(*)
SI_UNIT(.CENTI.,.METRE.)
);
#375=(
NAMED_UNIT(*)
PLANE_ANGLE_UNIT()
SI_UNIT($,.RADIAN.)
);
#376=(
NAMED_UNIT(*)
SI_UNIT($,.STERADIAN.)
SOLID_ANGLE_UNIT()
);
#377=SHAPE_DEFINITION_REPRESENTATION(#378,#379);
#378=PRODUCT_DEFINITION_SHAPE('',$,#381);
#379=SHAPE_REPRESENTATION('',(#213),#371);
#380=PRODUCT_DEFINITION_CONTEXT('part definition',#385,'design');
#381=PRODUCT_DEFINITION('41948','41948',#382,#380);
#382=PRODUCT_DEFINITION_FORMATION('',$,#387);
#383=PRODUCT_RELATED_PRODUCT_CATEGORY('41948','41948',(#387));
#384=APPLICATION_PROTOCOL_DEFINITION('international standard',
'automotive_design',2009,#385);
#385=APPLICATION_CONTEXT(
'Core Data for Automotive Mechanical Design Process');
#386=PRODUCT_CONTEXT('part definition',#385,'mechanical');
#387=PRODUCT('41948','41948',$,(#386));
#388=PRESENTATION_STYLE_ASSIGNMENT((#389));
#389=SURFACE_STYLE_USAGE(.BOTH.,#392);
#390=SURFACE_STYLE_RENDERING_WITH_PROPERTIES($,#396,(#391));
#391=SURFACE_STYLE_TRANSPARENT(0.);
#392=SURFACE_SIDE_STYLE('',(#393,#390));
#393=SURFACE_STYLE_FILL_AREA(#394);
#394=FILL_AREA_STYLE('',(#395));
#395=FILL_AREA_STYLE_COLOUR('',#396);
#396=COLOUR_RGB('',0.956862745098039,0.956862745098039,0.956862745098039);
ENDSEC;
END-ISO-10303-21;
