ISO-10303-21;
HEADER;
/* Generated by software containing ST-Developer
 * from STEP Tools, Inc. (www.steptools.com) 
 */

FILE_DESCRIPTION(
/* description */ (''),
/* implementation_level */ '2;1');

FILE_NAME(
/* name */ 
'C:\\Users\\O.Boryczka\\Desktop\\Korrigierte Zeichnungen\\T\X\FCrgriff
st\X\FCtzen V2A\\41974.ipt.step',
/* time_stamp */ '2022-07-18T12:58:29+02:00',
/* author */ ('Abt. Technik'),
/* organization */ (''),
/* preprocessor_version */ 'ST-DEVELOPER v18.1',
/* originating_system */ 'Autodesk Inventor 2022',
/* authorisation */ '');

FILE_SCHEMA (('AUTOMOTIVE_DESIGN { 1 0 10303 214 3 1 1 }'));
ENDSEC;

DATA;
#10=MECHANICAL_DESIGN_GEOMETRIC_PRESENTATION_REPRESENTATION('',(#13),#456);
#11=SHAPE_REPRESENTATION_RELATIONSHIP('SRR','None',#463,#12);
#12=ADVANCED_BREP_SHAPE_REPRESENTATION('',(#14),#455);
#13=STYLED_ITEM('',(#472),#14);
#14=MANIFOLD_SOLID_BREP('Volumenk\X\F6rper1',#185);
#15=FACE_BOUND('',#45,.T.);
#16=FACE_BOUND('',#47,.T.);
#17=FACE_BOUND('',#51,.T.);
#18=FACE_BOUND('',#54,.T.);
#19=PLANE('',#210);
#20=PLANE('',#213);
#21=PLANE('',#220);
#22=PLANE('',#221);
#23=PLANE('',#226);
#24=PLANE('',#229);
#25=FACE_OUTER_BOUND('',#38,.T.);
#26=FACE_OUTER_BOUND('',#39,.T.);
#27=FACE_OUTER_BOUND('',#40,.T.);
#28=FACE_OUTER_BOUND('',#41,.T.);
#29=FACE_OUTER_BOUND('',#42,.T.);
#30=FACE_OUTER_BOUND('',#43,.T.);
#31=FACE_OUTER_BOUND('',#44,.T.);
#32=FACE_OUTER_BOUND('',#46,.T.);
#33=FACE_OUTER_BOUND('',#48,.T.);
#34=FACE_OUTER_BOUND('',#49,.T.);
#35=FACE_OUTER_BOUND('',#50,.T.);
#36=FACE_OUTER_BOUND('',#52,.T.);
#37=FACE_OUTER_BOUND('',#53,.T.);
#38=EDGE_LOOP('',(#121,#122,#123,#124,#125));
#39=EDGE_LOOP('',(#126));
#40=EDGE_LOOP('',(#127,#128,#129,#130,#131));
#41=EDGE_LOOP('',(#132));
#42=EDGE_LOOP('',(#133,#134,#135,#136));
#43=EDGE_LOOP('',(#137,#138,#139,#140));
#44=EDGE_LOOP('',(#141));
#45=EDGE_LOOP('',(#142));
#46=EDGE_LOOP('',(#143));
#47=EDGE_LOOP('',(#144));
#48=EDGE_LOOP('',(#145,#146,#147,#148));
#49=EDGE_LOOP('',(#149));
#50=EDGE_LOOP('',(#150,#151));
#51=EDGE_LOOP('',(#152,#153));
#52=EDGE_LOOP('',(#154,#155,#156,#157,#158,#159,#160,#161,#162));
#53=EDGE_LOOP('',(#163));
#54=EDGE_LOOP('',(#164));
#55=CIRCLE('',#209,2.5);
#56=CIRCLE('',#212,4.);
#57=CIRCLE('',#215,10.);
#58=CIRCLE('',#216,10.);
#59=CIRCLE('',#218,10.05);
#60=CIRCLE('',#219,10.05);
#61=CIRCLE('',#222,12.5);
#62=CIRCLE('',#224,4.);
#63=CIRCLE('',#225,4.);
#64=LINE('',#325,#71);
#65=LINE('',#368,#72);
#66=LINE('',#375,#73);
#67=LINE('',#381,#74);
#68=LINE('',#391,#75);
#69=LINE('',#450,#76);
#70=LINE('',#451,#77);
#71=VECTOR('',#234,2.5);
#72=VECTOR('',#241,4.);
#73=VECTOR('',#250,10.);
#74=VECTOR('',#257,10.05);
#75=VECTOR('',#270,4.);
#76=VECTOR('',#279,12.5);
#77=VECTOR('',#280,12.5);
#78=B_SPLINE_CURVE_WITH_KNOTS('',3,(#287,#288,#289,#290,#291,#292,#293,
#294,#295,#296,#297,#298,#299,#300,#301,#302,#303,#304),.UNSPECIFIED.,.F.,
 .F.,(4,2,2,2,2,2,2,2,4),(0.377784671077197,0.472228192643246,0.566671714209296,
0.661120528181845,0.755569342154393,0.850018156126942,0.944466970099491,
1.03891049166554,1.13335401323159),.UNSPECIFIED.);
#79=B_SPLINE_CURVE_WITH_KNOTS('',3,(#305,#306,#307,#308,#309,#310,#311,
#312,#313,#314,#315,#316,#317,#318,#319,#320,#321,#322,#323),
 .UNSPECIFIED.,.F.,.F.,(4,2,2,2,3,2,2,2,4),(1.13335401323159,1.22779753479764,
1.32224105636369,1.41668987033624,1.51113868430879,1.60558749828134,1.70003631225388,
1.79447983381993,1.88892335538598),.UNSPECIFIED.);
#80=B_SPLINE_CURVE_WITH_KNOTS('',3,(#331,#332,#333,#334,#335,#336,#337,
#338,#339,#340,#341,#342,#343,#344,#345,#346,#347,#348,#349,#350,#351,#352,
#353,#354,#355,#356),.UNSPECIFIED.,.F.,.F.,(4,2,2,2,2,2,2,2,2,2,2,2,4),
(0.,0.151068042068663,0.302136084137327,0.45319744933191,0.604258814526493,
0.755320179721076,0.906381544915659,1.05744958698432,1.20851762905299,1.35958567112165,
1.51065371319031,1.6617150783849,1.81277644357948),.UNSPECIFIED.);
#81=B_SPLINE_CURVE_WITH_KNOTS('',3,(#357,#358,#359,#360,#361,#362,#363,
#364,#365,#366),.UNSPECIFIED.,.F.,.F.,(4,2,2,2,4),(1.81277644357948,1.96383780877406,
2.11489917396864,2.26596721603731,2.41703525810597),.UNSPECIFIED.);
#82=B_SPLINE_CURVE_WITH_KNOTS('',3,(#397,#398,#399,#400,#401,#402,#403,
#404,#405,#406,#407,#408,#409,#410,#411,#412,#413,#414,#415,#416,#417,#418,
#419,#420,#421,#422,#423,#424,#425,#426,#427,#428,#429,#430,#431,#432,#433,
#434),.UNSPECIFIED.,.F.,.F.,(4,2,2,2,2,2,2,2,2,2,2,2,2,2,2,2,2,2,4),(0.,
0.24328405846965,0.486568116939299,0.973136233878598,1.45682180584726,1.69866459183159,
1.94050737781592,2.18235016380025,2.42419294978458,2.90787852175324,3.39444663869254,
3.63773069716219,3.88101475563184,4.12429881410149,4.36758287257114,4.85415098951044,
5.3378365614791,5.57967934746343,5.82152213344776),.UNSPECIFIED.);
#83=B_SPLINE_CURVE_WITH_KNOTS('',3,(#435,#436,#437,#438,#439,#440,#441,
#442,#443,#444,#445,#446,#447,#448),.UNSPECIFIED.,.F.,.F.,(4,2,2,2,2,2,
4),(5.82152213344776,6.06336491943209,6.30520770541642,6.78889327738508,
7.27546139432438,7.51874545279403,7.76202951126368),.UNSPECIFIED.);
#84=VERTEX_POINT('',#285);
#85=VERTEX_POINT('',#286);
#86=VERTEX_POINT('',#324);
#87=VERTEX_POINT('',#329);
#88=VERTEX_POINT('',#330);
#89=VERTEX_POINT('',#367);
#90=VERTEX_POINT('',#372);
#91=VERTEX_POINT('',#374);
#92=VERTEX_POINT('',#378);
#93=VERTEX_POINT('',#380);
#94=VERTEX_POINT('',#385);
#95=VERTEX_POINT('',#388);
#96=VERTEX_POINT('',#390);
#97=VERTEX_POINT('',#395);
#98=VERTEX_POINT('',#396);
#99=EDGE_CURVE('',#84,#85,#78,.T.);
#100=EDGE_CURVE('',#85,#84,#79,.T.);
#101=EDGE_CURVE('',#85,#86,#64,.T.);
#102=EDGE_CURVE('',#86,#86,#55,.T.);
#103=EDGE_CURVE('',#87,#88,#80,.T.);
#104=EDGE_CURVE('',#88,#87,#81,.T.);
#105=EDGE_CURVE('',#88,#89,#65,.T.);
#106=EDGE_CURVE('',#89,#89,#56,.T.);
#107=EDGE_CURVE('',#90,#90,#57,.T.);
#108=EDGE_CURVE('',#90,#91,#66,.T.);
#109=EDGE_CURVE('',#91,#91,#58,.T.);
#110=EDGE_CURVE('',#92,#92,#59,.T.);
#111=EDGE_CURVE('',#92,#93,#67,.T.);
#112=EDGE_CURVE('',#93,#93,#60,.T.);
#113=EDGE_CURVE('',#94,#94,#61,.T.);
#114=EDGE_CURVE('',#95,#95,#62,.T.);
#115=EDGE_CURVE('',#95,#96,#68,.T.);
#116=EDGE_CURVE('',#96,#96,#63,.T.);
#117=EDGE_CURVE('',#97,#98,#82,.T.);
#118=EDGE_CURVE('',#98,#97,#83,.T.);
#119=EDGE_CURVE('',#98,#84,#69,.T.);
#120=EDGE_CURVE('',#85,#94,#70,.T.);
#121=ORIENTED_EDGE('',*,*,#99,.F.);
#122=ORIENTED_EDGE('',*,*,#100,.F.);
#123=ORIENTED_EDGE('',*,*,#101,.T.);
#124=ORIENTED_EDGE('',*,*,#102,.T.);
#125=ORIENTED_EDGE('',*,*,#101,.F.);
#126=ORIENTED_EDGE('',*,*,#102,.F.);
#127=ORIENTED_EDGE('',*,*,#103,.F.);
#128=ORIENTED_EDGE('',*,*,#104,.F.);
#129=ORIENTED_EDGE('',*,*,#105,.T.);
#130=ORIENTED_EDGE('',*,*,#106,.T.);
#131=ORIENTED_EDGE('',*,*,#105,.F.);
#132=ORIENTED_EDGE('',*,*,#106,.F.);
#133=ORIENTED_EDGE('',*,*,#107,.F.);
#134=ORIENTED_EDGE('',*,*,#108,.T.);
#135=ORIENTED_EDGE('',*,*,#109,.T.);
#136=ORIENTED_EDGE('',*,*,#108,.F.);
#137=ORIENTED_EDGE('',*,*,#110,.F.);
#138=ORIENTED_EDGE('',*,*,#111,.T.);
#139=ORIENTED_EDGE('',*,*,#112,.T.);
#140=ORIENTED_EDGE('',*,*,#111,.F.);
#141=ORIENTED_EDGE('',*,*,#112,.F.);
#142=ORIENTED_EDGE('',*,*,#109,.F.);
#143=ORIENTED_EDGE('',*,*,#113,.F.);
#144=ORIENTED_EDGE('',*,*,#110,.T.);
#145=ORIENTED_EDGE('',*,*,#114,.F.);
#146=ORIENTED_EDGE('',*,*,#115,.T.);
#147=ORIENTED_EDGE('',*,*,#116,.T.);
#148=ORIENTED_EDGE('',*,*,#115,.F.);
#149=ORIENTED_EDGE('',*,*,#116,.F.);
#150=ORIENTED_EDGE('',*,*,#117,.F.);
#151=ORIENTED_EDGE('',*,*,#118,.F.);
#152=ORIENTED_EDGE('',*,*,#103,.T.);
#153=ORIENTED_EDGE('',*,*,#104,.T.);
#154=ORIENTED_EDGE('',*,*,#117,.T.);
#155=ORIENTED_EDGE('',*,*,#119,.T.);
#156=ORIENTED_EDGE('',*,*,#99,.T.);
#157=ORIENTED_EDGE('',*,*,#120,.T.);
#158=ORIENTED_EDGE('',*,*,#113,.T.);
#159=ORIENTED_EDGE('',*,*,#120,.F.);
#160=ORIENTED_EDGE('',*,*,#100,.T.);
#161=ORIENTED_EDGE('',*,*,#119,.F.);
#162=ORIENTED_EDGE('',*,*,#118,.T.);
#163=ORIENTED_EDGE('',*,*,#107,.T.);
#164=ORIENTED_EDGE('',*,*,#114,.T.);
#165=CYLINDRICAL_SURFACE('',#208,2.5);
#166=CYLINDRICAL_SURFACE('',#211,4.);
#167=CYLINDRICAL_SURFACE('',#214,10.);
#168=CYLINDRICAL_SURFACE('',#217,10.05);
#169=CYLINDRICAL_SURFACE('',#223,4.);
#170=CYLINDRICAL_SURFACE('',#227,21.2);
#171=CYLINDRICAL_SURFACE('',#228,12.5);
#172=ADVANCED_FACE('',(#25),#165,.F.);
#173=ADVANCED_FACE('',(#26),#19,.T.);
#174=ADVANCED_FACE('',(#27),#166,.F.);
#175=ADVANCED_FACE('',(#28),#20,.F.);
#176=ADVANCED_FACE('',(#29),#167,.T.);
#177=ADVANCED_FACE('',(#30),#168,.F.);
#178=ADVANCED_FACE('',(#31,#15),#21,.T.);
#179=ADVANCED_FACE('',(#32,#16),#22,.F.);
#180=ADVANCED_FACE('',(#33),#169,.F.);
#181=ADVANCED_FACE('',(#34),#23,.T.);
#182=ADVANCED_FACE('',(#35,#17),#170,.F.);
#183=ADVANCED_FACE('',(#36),#171,.T.);
#184=ADVANCED_FACE('',(#37,#18),#24,.F.);
#185=CLOSED_SHELL('',(#172,#173,#174,#175,#176,#177,#178,#179,#180,#181,
#182,#183,#184));
#186=DERIVED_UNIT_ELEMENT(#189,1.);
#187=DERIVED_UNIT_ELEMENT(#458,-3.);
#188=DIMENSIONAL_EXPONENTS(1.,0.,0.,0.,0.,0.,0.);
#189=(
CONVERSION_BASED_UNIT('gram',#191)
MASS_UNIT()
NAMED_UNIT(#188)
);
#190=(
MASS_UNIT()
NAMED_UNIT(*)
SI_UNIT(.KILO.,.GRAM.)
);
#191=MASS_MEASURE_WITH_UNIT(MASS_MEASURE(0.001),#190);
#192=DERIVED_UNIT((#186,#187));
#193=MEASURE_REPRESENTATION_ITEM('density measure',
POSITIVE_RATIO_MEASURE(8.),#192);
#194=PROPERTY_DEFINITION_REPRESENTATION(#199,#196);
#195=PROPERTY_DEFINITION_REPRESENTATION(#200,#197);
#196=REPRESENTATION('material name',(#198),#455);
#197=REPRESENTATION('density',(#193),#455);
#198=DESCRIPTIVE_REPRESENTATION_ITEM('Edelstahl AISI 304',
'Edelstahl AISI 304');
#199=PROPERTY_DEFINITION('material property','material name',#465);
#200=PROPERTY_DEFINITION('material property','density of part',#465);
#201=DATE_TIME_ROLE('creation_date');
#202=APPLIED_DATE_AND_TIME_ASSIGNMENT(#203,#201,(#465));
#203=DATE_AND_TIME(#204,#205);
#204=CALENDAR_DATE(2021,7,6);
#205=LOCAL_TIME(0,0,0.,#206);
#206=COORDINATED_UNIVERSAL_TIME_OFFSET(0,0,.BEHIND.);
#207=AXIS2_PLACEMENT_3D('placement',#283,#230,#231);
#208=AXIS2_PLACEMENT_3D('',#284,#232,#233);
#209=AXIS2_PLACEMENT_3D('',#326,#235,#236);
#210=AXIS2_PLACEMENT_3D('',#327,#237,#238);
#211=AXIS2_PLACEMENT_3D('',#328,#239,#240);
#212=AXIS2_PLACEMENT_3D('',#369,#242,#243);
#213=AXIS2_PLACEMENT_3D('',#370,#244,#245);
#214=AXIS2_PLACEMENT_3D('',#371,#246,#247);
#215=AXIS2_PLACEMENT_3D('',#373,#248,#249);
#216=AXIS2_PLACEMENT_3D('',#376,#251,#252);
#217=AXIS2_PLACEMENT_3D('',#377,#253,#254);
#218=AXIS2_PLACEMENT_3D('',#379,#255,#256);
#219=AXIS2_PLACEMENT_3D('',#382,#258,#259);
#220=AXIS2_PLACEMENT_3D('',#383,#260,#261);
#221=AXIS2_PLACEMENT_3D('',#384,#262,#263);
#222=AXIS2_PLACEMENT_3D('',#386,#264,#265);
#223=AXIS2_PLACEMENT_3D('',#387,#266,#267);
#224=AXIS2_PLACEMENT_3D('',#389,#268,#269);
#225=AXIS2_PLACEMENT_3D('',#392,#271,#272);
#226=AXIS2_PLACEMENT_3D('',#393,#273,#274);
#227=AXIS2_PLACEMENT_3D('',#394,#275,#276);
#228=AXIS2_PLACEMENT_3D('',#449,#277,#278);
#229=AXIS2_PLACEMENT_3D('',#452,#281,#282);
#230=DIRECTION('axis',(0.,0.,1.));
#231=DIRECTION('refdir',(1.,0.,0.));
#232=DIRECTION('center_axis',(-1.,0.,0.));
#233=DIRECTION('ref_axis',(0.,1.,0.));
#234=DIRECTION('',(-1.,0.,0.));
#235=DIRECTION('center_axis',(-1.,0.,0.));
#236=DIRECTION('ref_axis',(0.,1.,0.));
#237=DIRECTION('center_axis',(1.,0.,0.));
#238=DIRECTION('ref_axis',(0.,0.,-1.));
#239=DIRECTION('center_axis',(0.,-1.,0.));
#240=DIRECTION('ref_axis',(1.,0.,0.));
#241=DIRECTION('',(0.,-1.,0.));
#242=DIRECTION('center_axis',(0.,-1.,0.));
#243=DIRECTION('ref_axis',(1.,0.,0.));
#244=DIRECTION('center_axis',(0.,-1.,0.));
#245=DIRECTION('ref_axis',(0.,0.,-1.));
#246=DIRECTION('center_axis',(0.,1.,0.));
#247=DIRECTION('ref_axis',(-1.,0.,0.));
#248=DIRECTION('center_axis',(0.,-1.,0.));
#249=DIRECTION('ref_axis',(-1.,0.,0.));
#250=DIRECTION('',(0.,1.,0.));
#251=DIRECTION('center_axis',(0.,-1.,0.));
#252=DIRECTION('ref_axis',(-1.,0.,0.));
#253=DIRECTION('center_axis',(0.,1.,0.));
#254=DIRECTION('ref_axis',(1.,0.,0.));
#255=DIRECTION('center_axis',(0.,1.,0.));
#256=DIRECTION('ref_axis',(1.,0.,0.));
#257=DIRECTION('',(0.,1.,0.));
#258=DIRECTION('center_axis',(0.,1.,0.));
#259=DIRECTION('ref_axis',(1.,0.,0.));
#260=DIRECTION('center_axis',(0.,-1.,0.));
#261=DIRECTION('ref_axis',(0.,0.,-1.));
#262=DIRECTION('center_axis',(0.,1.,0.));
#263=DIRECTION('ref_axis',(0.,0.,1.));
#264=DIRECTION('center_axis',(0.,1.,0.));
#265=DIRECTION('ref_axis',(-1.,0.,0.));
#266=DIRECTION('center_axis',(0.,1.,0.));
#267=DIRECTION('ref_axis',(1.,0.,0.));
#268=DIRECTION('center_axis',(0.,1.,0.));
#269=DIRECTION('ref_axis',(1.,0.,0.));
#270=DIRECTION('',(0.,1.,0.));
#271=DIRECTION('center_axis',(0.,1.,0.));
#272=DIRECTION('ref_axis',(1.,0.,0.));
#273=DIRECTION('center_axis',(0.,-1.,0.));
#274=DIRECTION('ref_axis',(0.,0.,-1.));
#275=DIRECTION('center_axis',(1.,0.,0.));
#276=DIRECTION('ref_axis',(0.,-1.,1.22464679914735E-16));
#277=DIRECTION('center_axis',(0.,1.,0.));
#278=DIRECTION('ref_axis',(-1.,0.,0.));
#279=DIRECTION('',(0.,-1.,0.));
#280=DIRECTION('',(0.,-1.,0.));
#281=DIRECTION('center_axis',(0.,1.,0.));
#282=DIRECTION('ref_axis',(0.,0.,1.));
#283=CARTESIAN_POINT('',(0.,0.,0.));
#284=CARTESIAN_POINT('Origin',(12.5,10.,0.));
#285=CARTESIAN_POINT('',(12.5,12.5,0.));
#286=CARTESIAN_POINT('',(12.5,7.5,0.));
#287=CARTESIAN_POINT('Ctrl Pts',(12.5,12.5,2.77555756156289E-16));
#288=CARTESIAN_POINT('Ctrl Pts',(12.5,12.5,-0.314811738553499));
#289=CARTESIAN_POINT('Ctrl Pts',(12.486904716177,12.4369113555896,-0.650033265204663));
#290=CARTESIAN_POINT('Ctrl Pts',(12.4395836787966,12.1815108538619,-1.26573715299407));
#291=CARTESIAN_POINT('Ctrl Pts',(12.406008440958,11.98924534432,-1.54628856161274));
#292=CARTESIAN_POINT('Ctrl Pts',(12.3427271275483,11.5462761504525,-1.98925775548022));
#293=CARTESIAN_POINT('Ctrl Pts',(12.3088537698193,11.2657300125751,-2.18151354412096));
#294=CARTESIAN_POINT('Ctrl Pts',(12.2608469154612,10.6500444429047,-2.43690699062153));
#295=CARTESIAN_POINT('Ctrl Pts',(12.2474487139159,10.3148293799085,-2.5));
#296=CARTESIAN_POINT('Ctrl Pts',(12.2474487139159,9.6851706200915,-2.5));
#297=CARTESIAN_POINT('Ctrl Pts',(12.2608469154612,9.34995555709527,-2.43690699062154));
#298=CARTESIAN_POINT('Ctrl Pts',(12.3088537698193,8.73426998742486,-2.18151354412096));
#299=CARTESIAN_POINT('Ctrl Pts',(12.3427271275483,8.45372384954748,-1.98925775548022));
#300=CARTESIAN_POINT('Ctrl Pts',(12.406008440958,8.01075465568,-1.54628856161274));
#301=CARTESIAN_POINT('Ctrl Pts',(12.4395836787966,7.81848914613811,-1.26573715299407));
#302=CARTESIAN_POINT('Ctrl Pts',(12.486904716177,7.56308864441041,-0.650033265204663));
#303=CARTESIAN_POINT('Ctrl Pts',(12.5,7.5,-0.314811738553499));
#304=CARTESIAN_POINT('Ctrl Pts',(12.5,7.5,-6.93889390390723E-17));
#305=CARTESIAN_POINT('Ctrl Pts',(12.5,7.5,-2.08166817117217E-16));
#306=CARTESIAN_POINT('Ctrl Pts',(12.5,7.5,0.314811738553499));
#307=CARTESIAN_POINT('Ctrl Pts',(12.486904716177,7.56308864441041,0.650033265204663));
#308=CARTESIAN_POINT('Ctrl Pts',(12.4395836787966,7.81848914613811,1.26573715299407));
#309=CARTESIAN_POINT('Ctrl Pts',(12.406008440958,8.01075465568,1.54628856161274));
#310=CARTESIAN_POINT('Ctrl Pts',(12.3427271275483,8.45372384954748,1.98925775548022));
#311=CARTESIAN_POINT('Ctrl Pts',(12.3088537698193,8.73426998742487,2.18151354412096));
#312=CARTESIAN_POINT('Ctrl Pts',(12.2608469154612,9.34995555709527,2.43690699062154));
#313=CARTESIAN_POINT('Ctrl Pts',(12.2474487139159,9.6851706200915,2.5));
#314=CARTESIAN_POINT('Ctrl Pts',(12.2474487139159,10.,2.5));
#315=CARTESIAN_POINT('Ctrl Pts',(12.2474487139159,10.3148293799085,2.5));
#316=CARTESIAN_POINT('Ctrl Pts',(12.2608469154612,10.6500444429047,2.43690699062153));
#317=CARTESIAN_POINT('Ctrl Pts',(12.3088537698193,11.2657300125751,2.18151354412096));
#318=CARTESIAN_POINT('Ctrl Pts',(12.3427271275483,11.5462761504525,1.98925775548022));
#319=CARTESIAN_POINT('Ctrl Pts',(12.406008440958,11.98924534432,1.54628856161274));
#320=CARTESIAN_POINT('Ctrl Pts',(12.4395836787966,12.1815108538619,1.26573715299407));
#321=CARTESIAN_POINT('Ctrl Pts',(12.486904716177,12.4369113555896,0.650033265204663));
#322=CARTESIAN_POINT('Ctrl Pts',(12.5,12.5,0.314811738553499));
#323=CARTESIAN_POINT('Ctrl Pts',(12.5,12.5,6.93889390390723E-17));
#324=CARTESIAN_POINT('',(6.5,7.5,3.06161699786838E-16));
#325=CARTESIAN_POINT('',(12.5,7.5,3.06161699786838E-16));
#326=CARTESIAN_POINT('Origin',(6.5,10.,0.));
#327=CARTESIAN_POINT('Origin',(6.5,10.,0.));
#328=CARTESIAN_POINT('Origin',(0.,55.,0.));
#329=CARTESIAN_POINT('',(-1.38777878078145E-16,55.380778112523,-4.));
#330=CARTESIAN_POINT('',(-4.,55.,3.26263963268185E-17));
#331=CARTESIAN_POINT('Ctrl Pts',(-1.38777878078145E-16,55.380778112523,
-4.));
#332=CARTESIAN_POINT('Ctrl Pts',(0.503560140228878,55.380778112523,-4.));
#333=CARTESIAN_POINT('Ctrl Pts',(1.03983649577687,55.360615651696,-3.89911566727517));
#334=CARTESIAN_POINT('Ctrl Pts',(2.02498231309691,55.2882991608358,-3.49053152787387));
#335=CARTESIAN_POINT('Ctrl Pts',(2.47395867756331,55.2372449159712,-3.18289557192907));
#336=CARTESIAN_POINT('Ctrl Pts',(3.18287990520595,55.1418100357404,-2.47397434428643));
#337=CARTESIAN_POINT('Ctrl Pts',(3.49052814001363,55.0911553107018,-2.02499130089389));
#338=CARTESIAN_POINT('Ctrl Pts',(3.89912118804032,55.0197572412153,-1.03982236528416));
#339=CARTESIAN_POINT('Ctrl Pts',(4.,55.,-0.503537883981943));
#340=CARTESIAN_POINT('Ctrl Pts',(4.,55.,0.503537883981943));
#341=CARTESIAN_POINT('Ctrl Pts',(3.89912118804032,55.0197572412153,1.03982236528416));
#342=CARTESIAN_POINT('Ctrl Pts',(3.49052814001363,55.0911553107018,2.02499130089389));
#343=CARTESIAN_POINT('Ctrl Pts',(3.18287990520595,55.1418100357404,2.47397434428643));
#344=CARTESIAN_POINT('Ctrl Pts',(2.47395867756331,55.2372449159712,3.18289557192907));
#345=CARTESIAN_POINT('Ctrl Pts',(2.02498231309691,55.2882991608358,3.49053152787387));
#346=CARTESIAN_POINT('Ctrl Pts',(1.03983649577687,55.360615651696,3.89911566727517));
#347=CARTESIAN_POINT('Ctrl Pts',(0.503560140228878,55.380778112523,4.));
#348=CARTESIAN_POINT('Ctrl Pts',(-0.503560140228878,55.380778112523,4.));
#349=CARTESIAN_POINT('Ctrl Pts',(-1.03983649577687,55.360615651696,3.89911566727517));
#350=CARTESIAN_POINT('Ctrl Pts',(-2.02498231309691,55.2882991608358,3.49053152787387));
#351=CARTESIAN_POINT('Ctrl Pts',(-2.47395867756331,55.2372449159712,3.18289557192907));
#352=CARTESIAN_POINT('Ctrl Pts',(-3.18287990520595,55.1418100357404,2.47397434428643));
#353=CARTESIAN_POINT('Ctrl Pts',(-3.49052814001363,55.0911553107018,2.0249913008939));
#354=CARTESIAN_POINT('Ctrl Pts',(-3.89912118804032,55.0197572412153,1.03982236528416));
#355=CARTESIAN_POINT('Ctrl Pts',(-4.,55.,0.503537883981944));
#356=CARTESIAN_POINT('Ctrl Pts',(-4.,55.,4.16333634234434E-16));
#357=CARTESIAN_POINT('Ctrl Pts',(-4.,55.,4.16333634234434E-16));
#358=CARTESIAN_POINT('Ctrl Pts',(-4.,55.,-0.503537883981943));
#359=CARTESIAN_POINT('Ctrl Pts',(-3.89912118804032,55.0197572412153,-1.03982236528416));
#360=CARTESIAN_POINT('Ctrl Pts',(-3.49052814001363,55.0911553107018,-2.02499130089389));
#361=CARTESIAN_POINT('Ctrl Pts',(-3.18287990520595,55.1418100357404,-2.47397434428643));
#362=CARTESIAN_POINT('Ctrl Pts',(-2.47395867756331,55.2372449159712,-3.18289557192907));
#363=CARTESIAN_POINT('Ctrl Pts',(-2.02498231309691,55.2882991608358,-3.49053152787387));
#364=CARTESIAN_POINT('Ctrl Pts',(-1.03983649577687,55.360615651696,-3.89911566727517));
#365=CARTESIAN_POINT('Ctrl Pts',(-0.503560140228878,55.380778112523,-4.));
#366=CARTESIAN_POINT('Ctrl Pts',(-1.38777878078145E-16,55.380778112523,
-4.));
#367=CARTESIAN_POINT('',(-4.,35.,-4.89858719658941E-16));
#368=CARTESIAN_POINT('',(-4.,55.,-4.89858719658941E-16));
#369=CARTESIAN_POINT('Origin',(0.,35.,0.));
#370=CARTESIAN_POINT('Origin',(0.,35.,0.));
#371=CARTESIAN_POINT('Origin',(0.,0.,0.));
#372=CARTESIAN_POINT('',(10.,0.,1.22464679914735E-15));
#373=CARTESIAN_POINT('Origin',(0.,0.,0.));
#374=CARTESIAN_POINT('',(10.,0.1,1.22464679914735E-15));
#375=CARTESIAN_POINT('',(10.,0.,-1.22464679914735E-15));
#376=CARTESIAN_POINT('Origin',(0.,0.1,0.));
#377=CARTESIAN_POINT('Origin',(0.,0.,0.));
#378=CARTESIAN_POINT('',(-10.05,0.,1.23077003314309E-15));
#379=CARTESIAN_POINT('Origin',(0.,0.,0.));
#380=CARTESIAN_POINT('',(-10.05,0.1,1.23077003314309E-15));
#381=CARTESIAN_POINT('',(-10.05,0.,1.23077003314309E-15));
#382=CARTESIAN_POINT('Origin',(0.,0.1,0.));
#383=CARTESIAN_POINT('Origin',(0.,0.1,0.));
#384=CARTESIAN_POINT('Origin',(0.,0.,0.));
#385=CARTESIAN_POINT('',(12.5,0.,-1.53080849893419E-15));
#386=CARTESIAN_POINT('Origin',(0.,0.,0.));
#387=CARTESIAN_POINT('Origin',(0.,0.,0.));
#388=CARTESIAN_POINT('',(-4.,0.,4.89858719658941E-16));
#389=CARTESIAN_POINT('Origin',(0.,0.,0.));
#390=CARTESIAN_POINT('',(-4.,20.,4.89858719658941E-16));
#391=CARTESIAN_POINT('',(-4.,0.,4.89858719658941E-16));
#392=CARTESIAN_POINT('Origin',(0.,20.,0.));
#393=CARTESIAN_POINT('Origin',(0.,20.,0.));
#394=CARTESIAN_POINT('Origin',(0.,76.2,0.));
#395=CARTESIAN_POINT('',(4.16333634234434E-16,59.0772081715627,12.5));
#396=CARTESIAN_POINT('',(12.5,55.,-1.45929363985782E-15));
#397=CARTESIAN_POINT('Ctrl Pts',(4.16333634234434E-16,59.0772081715627,
12.5));
#398=CARTESIAN_POINT('Ctrl Pts',(-0.810946861565498,59.0772081715627,12.5));
#399=CARTESIAN_POINT('Ctrl Pts',(-1.63975938271785,59.0178516262339,12.4199010458673));
#400=CARTESIAN_POINT('Ctrl Pts',(-3.27195155270883,58.7861239733644,12.0928526894193));
#401=CARTESIAN_POINT('Ctrl Pts',(-4.07544092937558,58.6142896606719,11.84607081204));
#402=CARTESIAN_POINT('Ctrl Pts',(-6.37072521829379,57.9898969826854,10.8820239898809));
#403=CARTESIAN_POINT('Ctrl Pts',(-7.74792991782354,57.4308567828748,9.92973961184015));
#404=CARTESIAN_POINT('Ctrl Pts',(-9.92327683269225,56.4330365762114,7.75439269697143));
#405=CARTESIAN_POINT('Ctrl Pts',(-10.8800913790041,55.9199515612669,6.37535826067364));
#406=CARTESIAN_POINT('Ctrl Pts',(-11.8470994623472,55.3800034263971,4.07297597088498));
#407=CARTESIAN_POINT('Ctrl Pts',(-12.0942438830473,55.2371015113626,3.26694268733));
#408=CARTESIAN_POINT('Ctrl Pts',(-12.4207560427708,55.0470437381653,1.63354490444488));
#409=CARTESIAN_POINT('Ctrl Pts',(-12.5,55.,0.806142619947768));
#410=CARTESIAN_POINT('Ctrl Pts',(-12.5,55.,-0.806142619947768));
#411=CARTESIAN_POINT('Ctrl Pts',(-12.4207560427708,55.0470437381653,-1.63354490444488));
#412=CARTESIAN_POINT('Ctrl Pts',(-12.0942438830473,55.2371015113626,-3.26694268733));
#413=CARTESIAN_POINT('Ctrl Pts',(-11.8470994623472,55.3800034263971,-4.07297597088498));
#414=CARTESIAN_POINT('Ctrl Pts',(-10.8800913790041,55.9199515612669,-6.37535826067364));
#415=CARTESIAN_POINT('Ctrl Pts',(-9.92327683269225,56.4330365762114,-7.75439269697143));
#416=CARTESIAN_POINT('Ctrl Pts',(-7.74792991782354,57.4308567828748,-9.92973961184015));
#417=CARTESIAN_POINT('Ctrl Pts',(-6.37072521829379,57.9898969826854,-10.8820239898809));
#418=CARTESIAN_POINT('Ctrl Pts',(-4.07544092937558,58.6142896606719,-11.84607081204));
#419=CARTESIAN_POINT('Ctrl Pts',(-3.27195155270883,58.7861239733644,-12.0928526894193));
#420=CARTESIAN_POINT('Ctrl Pts',(-1.63975938271785,59.0178516262339,-12.4199010458673));
#421=CARTESIAN_POINT('Ctrl Pts',(-0.810946861565499,59.0772081715627,-12.5));
#422=CARTESIAN_POINT('Ctrl Pts',(0.8109468615655,59.0772081715627,-12.5));
#423=CARTESIAN_POINT('Ctrl Pts',(1.63975938271786,59.0178516262339,-12.4199010458673));
#424=CARTESIAN_POINT('Ctrl Pts',(3.27195155270883,58.7861239733644,-12.0928526894193));
#425=CARTESIAN_POINT('Ctrl Pts',(4.07544092937559,58.6142896606719,-11.84607081204));
#426=CARTESIAN_POINT('Ctrl Pts',(6.37072521829379,57.9898969826854,-10.8820239898809));
#427=CARTESIAN_POINT('Ctrl Pts',(7.74792991782354,57.4308567828748,-9.92973961184015));
#428=CARTESIAN_POINT('Ctrl Pts',(9.92327683269225,56.4330365762114,-7.75439269697144));
#429=CARTESIAN_POINT('Ctrl Pts',(10.8800913790041,55.9199515612669,-6.37535826067364));
#430=CARTESIAN_POINT('Ctrl Pts',(11.8470994623472,55.3800034263971,-4.07297597088498));
#431=CARTESIAN_POINT('Ctrl Pts',(12.0942438830473,55.2371015113626,-3.26694268733));
#432=CARTESIAN_POINT('Ctrl Pts',(12.4207560427708,55.0470437381653,-1.63354490444488));
#433=CARTESIAN_POINT('Ctrl Pts',(12.5,55.,-0.806142619947769));
#434=CARTESIAN_POINT('Ctrl Pts',(12.5,55.,-1.80411241501588E-15));
#435=CARTESIAN_POINT('Ctrl Pts',(12.5,55.,-1.38777878078145E-15));
#436=CARTESIAN_POINT('Ctrl Pts',(12.5,55.,0.806142619947766));
#437=CARTESIAN_POINT('Ctrl Pts',(12.4207560427708,55.0470437381653,1.63354490444488));
#438=CARTESIAN_POINT('Ctrl Pts',(12.0942438830473,55.2371015113626,3.26694268733));
#439=CARTESIAN_POINT('Ctrl Pts',(11.8470994623472,55.3800034263971,4.07297597088497));
#440=CARTESIAN_POINT('Ctrl Pts',(10.8800913790041,55.9199515612669,6.37535826067364));
#441=CARTESIAN_POINT('Ctrl Pts',(9.92327683269226,56.4330365762114,7.75439269697143));
#442=CARTESIAN_POINT('Ctrl Pts',(7.74792991782354,57.4308567828748,9.92973961184015));
#443=CARTESIAN_POINT('Ctrl Pts',(6.37072521829379,57.9898969826854,10.8820239898809));
#444=CARTESIAN_POINT('Ctrl Pts',(4.07544092937558,58.6142896606719,11.84607081204));
#445=CARTESIAN_POINT('Ctrl Pts',(3.27195155270883,58.7861239733644,12.0928526894193));
#446=CARTESIAN_POINT('Ctrl Pts',(1.63975938271785,59.0178516262339,12.4199010458673));
#447=CARTESIAN_POINT('Ctrl Pts',(0.810946861565504,59.0772081715627,12.5));
#448=CARTESIAN_POINT('Ctrl Pts',(4.85722573273506E-15,59.0772081715627,
12.5));
#449=CARTESIAN_POINT('Origin',(0.,0.,0.));
#450=CARTESIAN_POINT('',(12.5,0.,-1.53080849893419E-15));
#451=CARTESIAN_POINT('',(12.5,0.,-1.53080849893419E-15));
#452=CARTESIAN_POINT('Origin',(0.,0.,0.));
#453=UNCERTAINTY_MEASURE_WITH_UNIT(LENGTH_MEASURE(0.01),#457,
'DISTANCE_ACCURACY_VALUE',
'Maximum model space distance between geometric entities at asserted c
onnectivities');
#454=UNCERTAINTY_MEASURE_WITH_UNIT(LENGTH_MEASURE(0.01),#457,
'DISTANCE_ACCURACY_VALUE',
'Maximum model space distance between geometric entities at asserted c
onnectivities');
#455=(
GEOMETRIC_REPRESENTATION_CONTEXT(3)
GLOBAL_UNCERTAINTY_ASSIGNED_CONTEXT((#453))
GLOBAL_UNIT_ASSIGNED_CONTEXT((#457,#459,#460))
REPRESENTATION_CONTEXT('','3D')
);
#456=(
GEOMETRIC_REPRESENTATION_CONTEXT(3)
GLOBAL_UNCERTAINTY_ASSIGNED_CONTEXT((#454))
GLOBAL_UNIT_ASSIGNED_CONTEXT((#457,#459,#460))
REPRESENTATION_CONTEXT('','3D')
);
#457=(
LENGTH_UNIT()
NAMED_UNIT(*)
SI_UNIT(.MILLI.,.METRE.)
);
#458=(
LENGTH_UNIT()
NAMED_UNIT(*)
SI_UNIT(.CENTI.,.METRE.)
);
#459=(
NAMED_UNIT(*)
PLANE_ANGLE_UNIT()
SI_UNIT($,.RADIAN.)
);
#460=(
NAMED_UNIT(*)
SI_UNIT($,.STERADIAN.)
SOLID_ANGLE_UNIT()
);
#461=SHAPE_DEFINITION_REPRESENTATION(#462,#463);
#462=PRODUCT_DEFINITION_SHAPE('',$,#465);
#463=SHAPE_REPRESENTATION('',(#207),#455);
#464=PRODUCT_DEFINITION_CONTEXT('part definition',#469,'design');
#465=PRODUCT_DEFINITION('41974','41974',#466,#464);
#466=PRODUCT_DEFINITION_FORMATION('',$,#471);
#467=PRODUCT_RELATED_PRODUCT_CATEGORY('41974','41974',(#471));
#468=APPLICATION_PROTOCOL_DEFINITION('international standard',
'automotive_design',2009,#469);
#469=APPLICATION_CONTEXT(
'Core Data for Automotive Mechanical Design Process');
#470=PRODUCT_CONTEXT('part definition',#469,'mechanical');
#471=PRODUCT('41974','41974',$,(#470));
#472=PRESENTATION_STYLE_ASSIGNMENT((#473));
#473=SURFACE_STYLE_USAGE(.BOTH.,#476);
#474=SURFACE_STYLE_RENDERING_WITH_PROPERTIES($,#480,(#475));
#475=SURFACE_STYLE_TRANSPARENT(0.);
#476=SURFACE_SIDE_STYLE('',(#477,#474));
#477=SURFACE_STYLE_FILL_AREA(#478);
#478=FILL_AREA_STYLE('',(#479));
#479=FILL_AREA_STYLE_COLOUR('',#480);
#480=COLOUR_RGB('',0.956862745098039,0.956862745098039,0.956862745098039);
ENDSEC;
END-ISO-10303-21;
