ISO-10303-21;
HEADER;
/* Generated by software containing ST-Developer
 * from STEP Tools, Inc. (www.steptools.com) 
 */

FILE_DESCRIPTION(
/* description */ (''),
/* implementation_level */ '2;1');

FILE_NAME(
/* name */ 
'C:\\Users\\O.Boryczka\\Desktop\\Korrigierte Zeichnungen\\Anschwei\X\DF
laschen V2A\\IPT_Daten\\42011.ipt.step',
/* time_stamp */ '2022-07-18T12:53:12+02:00',
/* author */ ('Nutzer'),
/* organization */ (''),
/* preprocessor_version */ 'ST-DEVELOPER v18.1',
/* originating_system */ 'Autodesk Inventor 2022',
/* authorisation */ '');

FILE_SCHEMA (('AUTOMOTIVE_DESIGN { 1 0 10303 214 3 1 1 }'));
ENDSEC;

DATA;
#10=MECHANICAL_DESIGN_GEOMETRIC_PRESENTATION_REPRESENTATION('',(#13),#233);
#11=SHAPE_REPRESENTATION_RELATIONSHIP('SRR','None',#240,#12);
#12=ADVANCED_BREP_SHAPE_REPRESENTATION('',(#14),#232);
#13=STYLED_ITEM('',(#249),#14);
#14=MANIFOLD_SOLID_BREP('Volumenk\X\F6rper1',#128);
#15=FACE_BOUND('',#35,.T.);
#16=FACE_BOUND('',#37,.T.);
#17=PLANE('',#154);
#18=PLANE('',#155);
#19=PLANE('',#159);
#20=PLANE('',#160);
#21=PLANE('',#161);
#22=FACE_OUTER_BOUND('',#29,.T.);
#23=FACE_OUTER_BOUND('',#30,.T.);
#24=FACE_OUTER_BOUND('',#31,.T.);
#25=FACE_OUTER_BOUND('',#32,.T.);
#26=FACE_OUTER_BOUND('',#33,.T.);
#27=FACE_OUTER_BOUND('',#34,.T.);
#28=FACE_OUTER_BOUND('',#36,.T.);
#29=EDGE_LOOP('',(#89,#90,#91,#92));
#30=EDGE_LOOP('',(#93,#94,#95,#96));
#31=EDGE_LOOP('',(#97,#98,#99,#100));
#32=EDGE_LOOP('',(#101,#102,#103,#104));
#33=EDGE_LOOP('',(#105,#106,#107,#108));
#34=EDGE_LOOP('',(#109,#110,#111,#112));
#35=EDGE_LOOP('',(#113));
#36=EDGE_LOOP('',(#114,#115,#116,#117));
#37=EDGE_LOOP('',(#118));
#38=LINE('',#202,#49);
#39=LINE('',#207,#50);
#40=LINE('',#209,#51);
#41=LINE('',#211,#52);
#42=LINE('',#212,#53);
#43=LINE('',#215,#54);
#44=LINE('',#217,#55);
#45=LINE('',#218,#56);
#46=LINE('',#224,#57);
#47=LINE('',#226,#58);
#48=LINE('',#227,#59);
#49=VECTOR('',#168,21.35);
#50=VECTOR('',#173,10.);
#51=VECTOR('',#174,10.);
#52=VECTOR('',#175,10.);
#53=VECTOR('',#176,10.);
#54=VECTOR('',#179,10.);
#55=VECTOR('',#180,10.);
#56=VECTOR('',#181,10.);
#57=VECTOR('',#188,10.);
#58=VECTOR('',#191,10.);
#59=VECTOR('',#192,10.);
#60=CIRCLE('',#152,21.35);
#61=CIRCLE('',#153,21.35);
#62=CIRCLE('',#157,30.0003731343284);
#63=CIRCLE('',#158,30.0003731343284);
#64=VERTEX_POINT('',#199);
#65=VERTEX_POINT('',#201);
#66=VERTEX_POINT('',#205);
#67=VERTEX_POINT('',#206);
#68=VERTEX_POINT('',#208);
#69=VERTEX_POINT('',#210);
#70=VERTEX_POINT('',#214);
#71=VERTEX_POINT('',#216);
#72=VERTEX_POINT('',#220);
#73=VERTEX_POINT('',#222);
#74=EDGE_CURVE('',#64,#64,#60,.T.);
#75=EDGE_CURVE('',#64,#65,#38,.T.);
#76=EDGE_CURVE('',#65,#65,#61,.T.);
#77=EDGE_CURVE('',#66,#67,#39,.T.);
#78=EDGE_CURVE('',#67,#68,#40,.T.);
#79=EDGE_CURVE('',#69,#68,#41,.T.);
#80=EDGE_CURVE('',#66,#69,#42,.T.);
#81=EDGE_CURVE('',#70,#66,#43,.T.);
#82=EDGE_CURVE('',#71,#69,#44,.T.);
#83=EDGE_CURVE('',#70,#71,#45,.T.);
#84=EDGE_CURVE('',#72,#70,#62,.T.);
#85=EDGE_CURVE('',#73,#71,#63,.T.);
#86=EDGE_CURVE('',#72,#73,#46,.T.);
#87=EDGE_CURVE('',#67,#72,#47,.T.);
#88=EDGE_CURVE('',#68,#73,#48,.T.);
#89=ORIENTED_EDGE('',*,*,#74,.F.);
#90=ORIENTED_EDGE('',*,*,#75,.T.);
#91=ORIENTED_EDGE('',*,*,#76,.T.);
#92=ORIENTED_EDGE('',*,*,#75,.F.);
#93=ORIENTED_EDGE('',*,*,#77,.T.);
#94=ORIENTED_EDGE('',*,*,#78,.T.);
#95=ORIENTED_EDGE('',*,*,#79,.F.);
#96=ORIENTED_EDGE('',*,*,#80,.F.);
#97=ORIENTED_EDGE('',*,*,#81,.T.);
#98=ORIENTED_EDGE('',*,*,#80,.T.);
#99=ORIENTED_EDGE('',*,*,#82,.F.);
#100=ORIENTED_EDGE('',*,*,#83,.F.);
#101=ORIENTED_EDGE('',*,*,#84,.T.);
#102=ORIENTED_EDGE('',*,*,#83,.T.);
#103=ORIENTED_EDGE('',*,*,#85,.F.);
#104=ORIENTED_EDGE('',*,*,#86,.F.);
#105=ORIENTED_EDGE('',*,*,#87,.T.);
#106=ORIENTED_EDGE('',*,*,#86,.T.);
#107=ORIENTED_EDGE('',*,*,#88,.F.);
#108=ORIENTED_EDGE('',*,*,#78,.F.);
#109=ORIENTED_EDGE('',*,*,#88,.T.);
#110=ORIENTED_EDGE('',*,*,#85,.T.);
#111=ORIENTED_EDGE('',*,*,#82,.T.);
#112=ORIENTED_EDGE('',*,*,#79,.T.);
#113=ORIENTED_EDGE('',*,*,#74,.T.);
#114=ORIENTED_EDGE('',*,*,#87,.F.);
#115=ORIENTED_EDGE('',*,*,#77,.F.);
#116=ORIENTED_EDGE('',*,*,#81,.F.);
#117=ORIENTED_EDGE('',*,*,#84,.F.);
#118=ORIENTED_EDGE('',*,*,#76,.F.);
#119=CYLINDRICAL_SURFACE('',#151,21.35);
#120=CYLINDRICAL_SURFACE('',#156,30.0003731343284);
#121=ADVANCED_FACE('',(#22),#119,.F.);
#122=ADVANCED_FACE('',(#23),#17,.T.);
#123=ADVANCED_FACE('',(#24),#18,.T.);
#124=ADVANCED_FACE('',(#25),#120,.T.);
#125=ADVANCED_FACE('',(#26),#19,.T.);
#126=ADVANCED_FACE('',(#27,#15),#20,.T.);
#127=ADVANCED_FACE('',(#28,#16),#21,.F.);
#128=CLOSED_SHELL('',(#121,#122,#123,#124,#125,#126,#127));
#129=DERIVED_UNIT_ELEMENT(#132,1.);
#130=DERIVED_UNIT_ELEMENT(#235,-3.);
#131=DIMENSIONAL_EXPONENTS(1.,0.,0.,0.,0.,0.,0.);
#132=(
CONVERSION_BASED_UNIT('gram',#134)
MASS_UNIT()
NAMED_UNIT(#131)
);
#133=(
MASS_UNIT()
NAMED_UNIT(*)
SI_UNIT(.KILO.,.GRAM.)
);
#134=MASS_MEASURE_WITH_UNIT(MASS_MEASURE(0.001),#133);
#135=DERIVED_UNIT((#129,#130));
#136=MEASURE_REPRESENTATION_ITEM('density measure',
POSITIVE_RATIO_MEASURE(8.),#135);
#137=PROPERTY_DEFINITION_REPRESENTATION(#142,#139);
#138=PROPERTY_DEFINITION_REPRESENTATION(#143,#140);
#139=REPRESENTATION('material name',(#141),#232);
#140=REPRESENTATION('density',(#136),#232);
#141=DESCRIPTIVE_REPRESENTATION_ITEM('Edelstahl AISI 304',
'Edelstahl AISI 304');
#142=PROPERTY_DEFINITION('material property','material name',#242);
#143=PROPERTY_DEFINITION('material property','density of part',#242);
#144=DATE_TIME_ROLE('creation_date');
#145=APPLIED_DATE_AND_TIME_ASSIGNMENT(#146,#144,(#242));
#146=DATE_AND_TIME(#147,#148);
#147=CALENDAR_DATE(2021,22,4);
#148=LOCAL_TIME(0,0,0.,#149);
#149=COORDINATED_UNIVERSAL_TIME_OFFSET(0,0,.BEHIND.);
#150=AXIS2_PLACEMENT_3D('placement',#197,#162,#163);
#151=AXIS2_PLACEMENT_3D('',#198,#164,#165);
#152=AXIS2_PLACEMENT_3D('',#200,#166,#167);
#153=AXIS2_PLACEMENT_3D('',#203,#169,#170);
#154=AXIS2_PLACEMENT_3D('',#204,#171,#172);
#155=AXIS2_PLACEMENT_3D('',#213,#177,#178);
#156=AXIS2_PLACEMENT_3D('',#219,#182,#183);
#157=AXIS2_PLACEMENT_3D('',#221,#184,#185);
#158=AXIS2_PLACEMENT_3D('',#223,#186,#187);
#159=AXIS2_PLACEMENT_3D('',#225,#189,#190);
#160=AXIS2_PLACEMENT_3D('',#228,#193,#194);
#161=AXIS2_PLACEMENT_3D('',#229,#195,#196);
#162=DIRECTION('axis',(0.,0.,1.));
#163=DIRECTION('refdir',(1.,0.,0.));
#164=DIRECTION('center_axis',(0.,1.,0.));
#165=DIRECTION('ref_axis',(1.,0.,0.));
#166=DIRECTION('center_axis',(0.,-1.,0.));
#167=DIRECTION('ref_axis',(1.,0.,0.));
#168=DIRECTION('',(0.,-1.,0.));
#169=DIRECTION('center_axis',(0.,-1.,0.));
#170=DIRECTION('ref_axis',(1.,0.,0.));
#171=DIRECTION('center_axis',(1.,0.,0.));
#172=DIRECTION('ref_axis',(0.,0.,-1.));
#173=DIRECTION('',(0.,0.,-1.));
#174=DIRECTION('',(0.,1.,0.));
#175=DIRECTION('',(0.,0.,-1.));
#176=DIRECTION('',(0.,1.,0.));
#177=DIRECTION('center_axis',(1.31744635802244E-15,0.,1.));
#178=DIRECTION('ref_axis',(1.,0.,-1.31744635802244E-15));
#179=DIRECTION('',(1.,0.,-1.31744635802244E-15));
#180=DIRECTION('',(1.,0.,-1.31744635802244E-15));
#181=DIRECTION('',(0.,1.,0.));
#182=DIRECTION('center_axis',(0.,1.,0.));
#183=DIRECTION('ref_axis',(-1.,0.,7.37826541501767E-16));
#184=DIRECTION('center_axis',(0.,1.,0.));
#185=DIRECTION('ref_axis',(0.00498750015546905,0.,-0.999987562343752));
#186=DIRECTION('center_axis',(0.,1.,0.));
#187=DIRECTION('ref_axis',(0.00498750015546905,0.,-0.999987562343752));
#188=DIRECTION('',(0.,1.,0.));
#189=DIRECTION('center_axis',(-2.92765857338319E-16,0.,-1.));
#190=DIRECTION('ref_axis',(-1.,0.,2.92765857338319E-16));
#191=DIRECTION('',(-1.,0.,2.92765857338319E-16));
#192=DIRECTION('',(-1.,0.,2.92765857338319E-16));
#193=DIRECTION('center_axis',(0.,1.,0.));
#194=DIRECTION('ref_axis',(0.,0.,1.));
#195=DIRECTION('center_axis',(0.,1.,0.));
#196=DIRECTION('ref_axis',(0.,0.,1.));
#197=CARTESIAN_POINT('',(0.,0.,0.));
#198=CARTESIAN_POINT('Origin',(-121.499626865672,0.,-29.9999999999999));
#199=CARTESIAN_POINT('',(-142.849626865672,6.,-29.9999999999999));
#200=CARTESIAN_POINT('Origin',(-121.499626865672,6.,-29.9999999999999));
#201=CARTESIAN_POINT('',(-142.849626865672,0.,-29.9999999999999));
#202=CARTESIAN_POINT('',(-142.849626865672,0.,-29.9999999999999));
#203=CARTESIAN_POINT('Origin',(-121.499626865672,0.,-29.9999999999999));
#204=CARTESIAN_POINT('Origin',(0.,0.,0.));
#205=CARTESIAN_POINT('',(0.,0.,0.));
#206=CARTESIAN_POINT('',(0.,0.,-60.));
#207=CARTESIAN_POINT('',(0.,0.,0.));
#208=CARTESIAN_POINT('',(0.,6.,-60.));
#209=CARTESIAN_POINT('',(0.,0.,-60.));
#210=CARTESIAN_POINT('',(0.,6.,0.));
#211=CARTESIAN_POINT('',(0.,6.,0.));
#212=CARTESIAN_POINT('',(0.,0.,0.));
#213=CARTESIAN_POINT('Origin',(-121.35,0.,1.59872115546023E-13));
#214=CARTESIAN_POINT('',(-121.35,0.,1.59872115546023E-13));
#215=CARTESIAN_POINT('',(-121.35,0.,1.59872115546023E-13));
#216=CARTESIAN_POINT('',(-121.35,6.,1.59872115546023E-13));
#217=CARTESIAN_POINT('',(-121.35,6.,1.59872115546023E-13));
#218=CARTESIAN_POINT('',(-121.35,0.,1.59872115546023E-13));
#219=CARTESIAN_POINT('Origin',(-121.499626865672,0.,-29.9999999999999));
#220=CARTESIAN_POINT('',(-121.35,0.,-60.));
#221=CARTESIAN_POINT('Origin',(-121.499626865672,0.,-29.9999999999999));
#222=CARTESIAN_POINT('',(-121.35,6.,-60.));
#223=CARTESIAN_POINT('Origin',(-121.499626865672,6.,-29.9999999999999));
#224=CARTESIAN_POINT('',(-121.35,0.,-60.));
#225=CARTESIAN_POINT('Origin',(0.,0.,-60.));
#226=CARTESIAN_POINT('',(0.,0.,-60.));
#227=CARTESIAN_POINT('',(0.,6.,-60.));
#228=CARTESIAN_POINT('Origin',(-75.75,6.,-29.9999999999999));
#229=CARTESIAN_POINT('Origin',(-75.75,0.,-29.9999999999999));
#230=UNCERTAINTY_MEASURE_WITH_UNIT(LENGTH_MEASURE(0.01),#234,
'DISTANCE_ACCURACY_VALUE',
'Maximum model space distance between geometric entities at asserted c
onnectivities');
#231=UNCERTAINTY_MEASURE_WITH_UNIT(LENGTH_MEASURE(0.01),#234,
'DISTANCE_ACCURACY_VALUE',
'Maximum model space distance between geometric entities at asserted c
onnectivities');
#232=(
GEOMETRIC_REPRESENTATION_CONTEXT(3)
GLOBAL_UNCERTAINTY_ASSIGNED_CONTEXT((#230))
GLOBAL_UNIT_ASSIGNED_CONTEXT((#234,#236,#237))
REPRESENTATION_CONTEXT('','3D')
);
#233=(
GEOMETRIC_REPRESENTATION_CONTEXT(3)
GLOBAL_UNCERTAINTY_ASSIGNED_CONTEXT((#231))
GLOBAL_UNIT_ASSIGNED_CONTEXT((#234,#236,#237))
REPRESENTATION_CONTEXT('','3D')
);
#234=(
LENGTH_UNIT()
NAMED_UNIT(*)
SI_UNIT(.MILLI.,.METRE.)
);
#235=(
LENGTH_UNIT()
NAMED_UNIT(*)
SI_UNIT(.CENTI.,.METRE.)
);
#236=(
NAMED_UNIT(*)
PLANE_ANGLE_UNIT()
SI_UNIT($,.RADIAN.)
);
#237=(
NAMED_UNIT(*)
SI_UNIT($,.STERADIAN.)
SOLID_ANGLE_UNIT()
);
#238=SHAPE_DEFINITION_REPRESENTATION(#239,#240);
#239=PRODUCT_DEFINITION_SHAPE('',$,#242);
#240=SHAPE_REPRESENTATION('',(#150),#232);
#241=PRODUCT_DEFINITION_CONTEXT('part definition',#246,'design');
#242=PRODUCT_DEFINITION('42011','42011',#243,#241);
#243=PRODUCT_DEFINITION_FORMATION('',$,#248);
#244=PRODUCT_RELATED_PRODUCT_CATEGORY('42011','42011',(#248));
#245=APPLICATION_PROTOCOL_DEFINITION('international standard',
'automotive_design',2009,#246);
#246=APPLICATION_CONTEXT(
'Core Data for Automotive Mechanical Design Process');
#247=PRODUCT_CONTEXT('part definition',#246,'mechanical');
#248=PRODUCT('42011','42011',$,(#247));
#249=PRESENTATION_STYLE_ASSIGNMENT((#250));
#250=SURFACE_STYLE_USAGE(.BOTH.,#253);
#251=SURFACE_STYLE_RENDERING_WITH_PROPERTIES($,#257,(#252));
#252=SURFACE_STYLE_TRANSPARENT(0.);
#253=SURFACE_SIDE_STYLE('',(#254,#251));
#254=SURFACE_STYLE_FILL_AREA(#255);
#255=FILL_AREA_STYLE('',(#256));
#256=FILL_AREA_STYLE_COLOUR('',#257);
#257=COLOUR_RGB('',0.956862745098039,0.956862745098039,0.956862745098039);
ENDSEC;
END-ISO-10303-21;
