ISO-10303-21;
HEADER;
/* Generated by software containing ST-Developer
 * from STEP Tools, Inc. (www.steptools.com) 
 */

FILE_DESCRIPTION(
/* description */ (''),
/* implementation_level */ '2;1');

FILE_NAME(
/* name */ 
'C:\\Users\\O.Boryczka\\Desktop\\Korrigierte Zeichnungen\\Anschwei\X\DF
laschen V2A\\IPT_Daten\\42016.ipt.step',
/* time_stamp */ '2022-07-18T12:53:13+02:00',
/* author */ ('Nutzer'),
/* organization */ (''),
/* preprocessor_version */ 'ST-DEVELOPER v18.1',
/* originating_system */ 'Autodesk Inventor 2022',
/* authorisation */ '');

FILE_SCHEMA (('AUTOMOTIVE_DESIGN { 1 0 10303 214 3 1 1 }'));
ENDSEC;

DATA;
#10=MECHANICAL_DESIGN_GEOMETRIC_PRESENTATION_REPRESENTATION('',(#13),#398);
#11=SHAPE_REPRESENTATION_RELATIONSHIP('SRR','None',#405,#12);
#12=ADVANCED_BREP_SHAPE_REPRESENTATION('',(#14),#397);
#13=STYLED_ITEM('',(#414),#14);
#14=MANIFOLD_SOLID_BREP('Volumenk\X\F6rper1',#233);
#15=FACE_BOUND('',#46,.T.);
#16=FACE_BOUND('',#48,.T.);
#17=CIRCLE('',#262,4.00000000000004);
#18=CIRCLE('',#263,4.00000000000004);
#19=CIRCLE('',#266,4.00000000000003);
#20=CIRCLE('',#267,4.00000000000003);
#21=CYLINDRICAL_SURFACE('',#261,4.00000000000004);
#22=CYLINDRICAL_SURFACE('',#265,4.00000000000003);
#23=FACE_OUTER_BOUND('',#35,.T.);
#24=FACE_OUTER_BOUND('',#36,.T.);
#25=FACE_OUTER_BOUND('',#37,.T.);
#26=FACE_OUTER_BOUND('',#38,.T.);
#27=FACE_OUTER_BOUND('',#39,.T.);
#28=FACE_OUTER_BOUND('',#40,.T.);
#29=FACE_OUTER_BOUND('',#41,.T.);
#30=FACE_OUTER_BOUND('',#42,.T.);
#31=FACE_OUTER_BOUND('',#43,.T.);
#32=FACE_OUTER_BOUND('',#44,.T.);
#33=FACE_OUTER_BOUND('',#45,.T.);
#34=FACE_OUTER_BOUND('',#47,.T.);
#35=EDGE_LOOP('',(#151,#152,#153,#154));
#36=EDGE_LOOP('',(#155,#156,#157,#158));
#37=EDGE_LOOP('',(#159,#160,#161,#162));
#38=EDGE_LOOP('',(#163,#164,#165,#166));
#39=EDGE_LOOP('',(#167,#168,#169,#170));
#40=EDGE_LOOP('',(#171,#172,#173,#174));
#41=EDGE_LOOP('',(#175,#176,#177,#178));
#42=EDGE_LOOP('',(#179,#180,#181,#182));
#43=EDGE_LOOP('',(#183,#184,#185,#186));
#44=EDGE_LOOP('',(#187,#188,#189,#190));
#45=EDGE_LOOP('',(#191,#192,#193,#194,#195,#196));
#46=EDGE_LOOP('',(#197,#198,#199,#200));
#47=EDGE_LOOP('',(#201,#202,#203,#204,#205,#206));
#48=EDGE_LOOP('',(#207,#208,#209,#210));
#49=LINE('',#336,#75);
#50=LINE('',#338,#76);
#51=LINE('',#340,#77);
#52=LINE('',#341,#78);
#53=LINE('',#344,#79);
#54=LINE('',#346,#80);
#55=LINE('',#347,#81);
#56=LINE('',#350,#82);
#57=LINE('',#352,#83);
#58=LINE('',#353,#84);
#59=LINE('',#355,#85);
#60=LINE('',#356,#86);
#61=LINE('',#360,#87);
#62=LINE('',#362,#88);
#63=LINE('',#364,#89);
#64=LINE('',#365,#90);
#65=LINE('',#371,#91);
#66=LINE('',#374,#92);
#67=LINE('',#376,#93);
#68=LINE('',#377,#94);
#69=LINE('',#383,#95);
#70=LINE('',#386,#96);
#71=LINE('',#388,#97);
#72=LINE('',#389,#98);
#73=LINE('',#391,#99);
#74=LINE('',#392,#100);
#75=VECTOR('',#276,10.);
#76=VECTOR('',#277,10.);
#77=VECTOR('',#278,10.);
#78=VECTOR('',#279,10.);
#79=VECTOR('',#282,10.);
#80=VECTOR('',#283,10.);
#81=VECTOR('',#284,10.);
#82=VECTOR('',#287,10.);
#83=VECTOR('',#288,10.);
#84=VECTOR('',#289,10.);
#85=VECTOR('',#292,10.);
#86=VECTOR('',#293,10.);
#87=VECTOR('',#296,10.);
#88=VECTOR('',#297,10.);
#89=VECTOR('',#298,10.);
#90=VECTOR('',#299,10.);
#91=VECTOR('',#306,10.);
#92=VECTOR('',#309,10.);
#93=VECTOR('',#310,10.);
#94=VECTOR('',#311,10.);
#95=VECTOR('',#318,10.);
#96=VECTOR('',#321,10.);
#97=VECTOR('',#322,10.);
#98=VECTOR('',#323,10.);
#99=VECTOR('',#326,10.);
#100=VECTOR('',#327,10.);
#101=VERTEX_POINT('',#334);
#102=VERTEX_POINT('',#335);
#103=VERTEX_POINT('',#337);
#104=VERTEX_POINT('',#339);
#105=VERTEX_POINT('',#343);
#106=VERTEX_POINT('',#345);
#107=VERTEX_POINT('',#349);
#108=VERTEX_POINT('',#351);
#109=VERTEX_POINT('',#358);
#110=VERTEX_POINT('',#359);
#111=VERTEX_POINT('',#361);
#112=VERTEX_POINT('',#363);
#113=VERTEX_POINT('',#367);
#114=VERTEX_POINT('',#369);
#115=VERTEX_POINT('',#373);
#116=VERTEX_POINT('',#375);
#117=VERTEX_POINT('',#379);
#118=VERTEX_POINT('',#381);
#119=VERTEX_POINT('',#385);
#120=VERTEX_POINT('',#387);
#121=EDGE_CURVE('',#101,#102,#49,.T.);
#122=EDGE_CURVE('',#102,#103,#50,.T.);
#123=EDGE_CURVE('',#104,#103,#51,.T.);
#124=EDGE_CURVE('',#101,#104,#52,.T.);
#125=EDGE_CURVE('',#105,#101,#53,.T.);
#126=EDGE_CURVE('',#106,#104,#54,.T.);
#127=EDGE_CURVE('',#105,#106,#55,.T.);
#128=EDGE_CURVE('',#107,#105,#56,.T.);
#129=EDGE_CURVE('',#108,#106,#57,.T.);
#130=EDGE_CURVE('',#107,#108,#58,.T.);
#131=EDGE_CURVE('',#102,#107,#59,.T.);
#132=EDGE_CURVE('',#103,#108,#60,.T.);
#133=EDGE_CURVE('',#109,#110,#61,.T.);
#134=EDGE_CURVE('',#110,#111,#62,.T.);
#135=EDGE_CURVE('',#112,#111,#63,.T.);
#136=EDGE_CURVE('',#109,#112,#64,.T.);
#137=EDGE_CURVE('',#113,#109,#17,.T.);
#138=EDGE_CURVE('',#114,#112,#18,.T.);
#139=EDGE_CURVE('',#113,#114,#65,.T.);
#140=EDGE_CURVE('',#115,#113,#66,.T.);
#141=EDGE_CURVE('',#116,#114,#67,.T.);
#142=EDGE_CURVE('',#115,#116,#68,.T.);
#143=EDGE_CURVE('',#117,#115,#19,.T.);
#144=EDGE_CURVE('',#118,#116,#20,.T.);
#145=EDGE_CURVE('',#117,#118,#69,.T.);
#146=EDGE_CURVE('',#119,#117,#70,.T.);
#147=EDGE_CURVE('',#120,#118,#71,.T.);
#148=EDGE_CURVE('',#119,#120,#72,.T.);
#149=EDGE_CURVE('',#110,#119,#73,.T.);
#150=EDGE_CURVE('',#111,#120,#74,.T.);
#151=ORIENTED_EDGE('',*,*,#121,.T.);
#152=ORIENTED_EDGE('',*,*,#122,.T.);
#153=ORIENTED_EDGE('',*,*,#123,.F.);
#154=ORIENTED_EDGE('',*,*,#124,.F.);
#155=ORIENTED_EDGE('',*,*,#125,.T.);
#156=ORIENTED_EDGE('',*,*,#124,.T.);
#157=ORIENTED_EDGE('',*,*,#126,.F.);
#158=ORIENTED_EDGE('',*,*,#127,.F.);
#159=ORIENTED_EDGE('',*,*,#128,.T.);
#160=ORIENTED_EDGE('',*,*,#127,.T.);
#161=ORIENTED_EDGE('',*,*,#129,.F.);
#162=ORIENTED_EDGE('',*,*,#130,.F.);
#163=ORIENTED_EDGE('',*,*,#131,.T.);
#164=ORIENTED_EDGE('',*,*,#130,.T.);
#165=ORIENTED_EDGE('',*,*,#132,.F.);
#166=ORIENTED_EDGE('',*,*,#122,.F.);
#167=ORIENTED_EDGE('',*,*,#133,.T.);
#168=ORIENTED_EDGE('',*,*,#134,.T.);
#169=ORIENTED_EDGE('',*,*,#135,.F.);
#170=ORIENTED_EDGE('',*,*,#136,.F.);
#171=ORIENTED_EDGE('',*,*,#137,.T.);
#172=ORIENTED_EDGE('',*,*,#136,.T.);
#173=ORIENTED_EDGE('',*,*,#138,.F.);
#174=ORIENTED_EDGE('',*,*,#139,.F.);
#175=ORIENTED_EDGE('',*,*,#140,.T.);
#176=ORIENTED_EDGE('',*,*,#139,.T.);
#177=ORIENTED_EDGE('',*,*,#141,.F.);
#178=ORIENTED_EDGE('',*,*,#142,.F.);
#179=ORIENTED_EDGE('',*,*,#143,.T.);
#180=ORIENTED_EDGE('',*,*,#142,.T.);
#181=ORIENTED_EDGE('',*,*,#144,.F.);
#182=ORIENTED_EDGE('',*,*,#145,.F.);
#183=ORIENTED_EDGE('',*,*,#146,.T.);
#184=ORIENTED_EDGE('',*,*,#145,.T.);
#185=ORIENTED_EDGE('',*,*,#147,.F.);
#186=ORIENTED_EDGE('',*,*,#148,.F.);
#187=ORIENTED_EDGE('',*,*,#149,.T.);
#188=ORIENTED_EDGE('',*,*,#148,.T.);
#189=ORIENTED_EDGE('',*,*,#150,.F.);
#190=ORIENTED_EDGE('',*,*,#134,.F.);
#191=ORIENTED_EDGE('',*,*,#150,.T.);
#192=ORIENTED_EDGE('',*,*,#147,.T.);
#193=ORIENTED_EDGE('',*,*,#144,.T.);
#194=ORIENTED_EDGE('',*,*,#141,.T.);
#195=ORIENTED_EDGE('',*,*,#138,.T.);
#196=ORIENTED_EDGE('',*,*,#135,.T.);
#197=ORIENTED_EDGE('',*,*,#132,.T.);
#198=ORIENTED_EDGE('',*,*,#129,.T.);
#199=ORIENTED_EDGE('',*,*,#126,.T.);
#200=ORIENTED_EDGE('',*,*,#123,.T.);
#201=ORIENTED_EDGE('',*,*,#149,.F.);
#202=ORIENTED_EDGE('',*,*,#133,.F.);
#203=ORIENTED_EDGE('',*,*,#137,.F.);
#204=ORIENTED_EDGE('',*,*,#140,.F.);
#205=ORIENTED_EDGE('',*,*,#143,.F.);
#206=ORIENTED_EDGE('',*,*,#146,.F.);
#207=ORIENTED_EDGE('',*,*,#131,.F.);
#208=ORIENTED_EDGE('',*,*,#121,.F.);
#209=ORIENTED_EDGE('',*,*,#125,.F.);
#210=ORIENTED_EDGE('',*,*,#128,.F.);
#211=PLANE('',#256);
#212=PLANE('',#257);
#213=PLANE('',#258);
#214=PLANE('',#259);
#215=PLANE('',#260);
#216=PLANE('',#264);
#217=PLANE('',#268);
#218=PLANE('',#269);
#219=PLANE('',#270);
#220=PLANE('',#271);
#221=ADVANCED_FACE('',(#23),#211,.T.);
#222=ADVANCED_FACE('',(#24),#212,.T.);
#223=ADVANCED_FACE('',(#25),#213,.T.);
#224=ADVANCED_FACE('',(#26),#214,.T.);
#225=ADVANCED_FACE('',(#27),#215,.T.);
#226=ADVANCED_FACE('',(#28),#21,.T.);
#227=ADVANCED_FACE('',(#29),#216,.T.);
#228=ADVANCED_FACE('',(#30),#22,.T.);
#229=ADVANCED_FACE('',(#31),#217,.T.);
#230=ADVANCED_FACE('',(#32),#218,.T.);
#231=ADVANCED_FACE('',(#33,#15),#219,.T.);
#232=ADVANCED_FACE('',(#34,#16),#220,.F.);
#233=CLOSED_SHELL('',(#221,#222,#223,#224,#225,#226,#227,#228,#229,#230,
#231,#232));
#234=DERIVED_UNIT_ELEMENT(#237,1.);
#235=DERIVED_UNIT_ELEMENT(#400,-3.);
#236=DIMENSIONAL_EXPONENTS(1.,0.,0.,0.,0.,0.,0.);
#237=(
CONVERSION_BASED_UNIT('gram',#239)
MASS_UNIT()
NAMED_UNIT(#236)
);
#238=(
MASS_UNIT()
NAMED_UNIT(*)
SI_UNIT(.KILO.,.GRAM.)
);
#239=MASS_MEASURE_WITH_UNIT(MASS_MEASURE(0.001),#238);
#240=DERIVED_UNIT((#234,#235));
#241=MEASURE_REPRESENTATION_ITEM('density measure',
POSITIVE_RATIO_MEASURE(8.),#240);
#242=PROPERTY_DEFINITION_REPRESENTATION(#247,#244);
#243=PROPERTY_DEFINITION_REPRESENTATION(#248,#245);
#244=REPRESENTATION('material name',(#246),#397);
#245=REPRESENTATION('density',(#241),#397);
#246=DESCRIPTIVE_REPRESENTATION_ITEM('Edelstahl AISI 304',
'Edelstahl AISI 304');
#247=PROPERTY_DEFINITION('material property','material name',#407);
#248=PROPERTY_DEFINITION('material property','density of part',#407);
#249=DATE_TIME_ROLE('creation_date');
#250=APPLIED_DATE_AND_TIME_ASSIGNMENT(#251,#249,(#407));
#251=DATE_AND_TIME(#252,#253);
#252=CALENDAR_DATE(2021,22,4);
#253=LOCAL_TIME(0,0,0.,#254);
#254=COORDINATED_UNIVERSAL_TIME_OFFSET(0,0,.BEHIND.);
#255=AXIS2_PLACEMENT_3D('placement',#332,#272,#273);
#256=AXIS2_PLACEMENT_3D('',#333,#274,#275);
#257=AXIS2_PLACEMENT_3D('',#342,#280,#281);
#258=AXIS2_PLACEMENT_3D('',#348,#285,#286);
#259=AXIS2_PLACEMENT_3D('',#354,#290,#291);
#260=AXIS2_PLACEMENT_3D('',#357,#294,#295);
#261=AXIS2_PLACEMENT_3D('',#366,#300,#301);
#262=AXIS2_PLACEMENT_3D('',#368,#302,#303);
#263=AXIS2_PLACEMENT_3D('',#370,#304,#305);
#264=AXIS2_PLACEMENT_3D('',#372,#307,#308);
#265=AXIS2_PLACEMENT_3D('',#378,#312,#313);
#266=AXIS2_PLACEMENT_3D('',#380,#314,#315);
#267=AXIS2_PLACEMENT_3D('',#382,#316,#317);
#268=AXIS2_PLACEMENT_3D('',#384,#319,#320);
#269=AXIS2_PLACEMENT_3D('',#390,#324,#325);
#270=AXIS2_PLACEMENT_3D('',#393,#328,#329);
#271=AXIS2_PLACEMENT_3D('',#394,#330,#331);
#272=DIRECTION('axis',(0.,0.,1.));
#273=DIRECTION('refdir',(1.,0.,0.));
#274=DIRECTION('center_axis',(1.,0.,0.));
#275=DIRECTION('ref_axis',(0.,0.,-1.));
#276=DIRECTION('',(0.,0.,-1.));
#277=DIRECTION('',(0.,1.,0.));
#278=DIRECTION('',(0.,0.,-1.));
#279=DIRECTION('',(0.,1.,0.));
#280=DIRECTION('center_axis',(-2.46716227694479E-16,0.,-1.));
#281=DIRECTION('ref_axis',(-1.,0.,2.46716227694479E-16));
#282=DIRECTION('',(-1.,0.,2.46716227694479E-16));
#283=DIRECTION('',(-1.,0.,2.46716227694479E-16));
#284=DIRECTION('',(0.,1.,0.));
#285=DIRECTION('center_axis',(-1.,0.,-4.38606627012408E-16));
#286=DIRECTION('ref_axis',(-4.38606627012408E-16,0.,1.));
#287=DIRECTION('',(-4.38606627012408E-16,0.,1.));
#288=DIRECTION('',(-4.38606627012408E-16,0.,1.));
#289=DIRECTION('',(0.,1.,0.));
#290=DIRECTION('center_axis',(2.19303313506204E-16,0.,1.));
#291=DIRECTION('ref_axis',(1.,0.,-2.19303313506204E-16));
#292=DIRECTION('',(1.,0.,-2.19303313506204E-16));
#293=DIRECTION('',(1.,0.,-2.19303313506204E-16));
#294=DIRECTION('center_axis',(0.,0.,1.));
#295=DIRECTION('ref_axis',(1.,0.,0.));
#296=DIRECTION('',(1.,0.,0.));
#297=DIRECTION('',(0.,1.,0.));
#298=DIRECTION('',(1.,0.,0.));
#299=DIRECTION('',(0.,1.,0.));
#300=DIRECTION('center_axis',(0.,1.,0.));
#301=DIRECTION('ref_axis',(-1.,0.,0.));
#302=DIRECTION('center_axis',(0.,1.,0.));
#303=DIRECTION('ref_axis',(-1.,0.,0.));
#304=DIRECTION('center_axis',(0.,1.,0.));
#305=DIRECTION('ref_axis',(-1.,0.,0.));
#306=DIRECTION('',(0.,1.,0.));
#307=DIRECTION('center_axis',(-1.,0.,3.41607084500048E-16));
#308=DIRECTION('ref_axis',(3.41607084500048E-16,0.,1.));
#309=DIRECTION('',(3.41607084500048E-16,0.,1.));
#310=DIRECTION('',(3.41607084500048E-16,0.,1.));
#311=DIRECTION('',(0.,1.,0.));
#312=DIRECTION('center_axis',(0.,1.,0.));
#313=DIRECTION('ref_axis',(0.,0.,-1.));
#314=DIRECTION('center_axis',(0.,1.,0.));
#315=DIRECTION('ref_axis',(0.,0.,-1.));
#316=DIRECTION('center_axis',(0.,1.,0.));
#317=DIRECTION('ref_axis',(0.,0.,-1.));
#318=DIRECTION('',(0.,1.,0.));
#319=DIRECTION('center_axis',(0.,0.,-1.));
#320=DIRECTION('ref_axis',(-1.,0.,0.));
#321=DIRECTION('',(-1.,0.,0.));
#322=DIRECTION('',(-1.,0.,0.));
#323=DIRECTION('',(0.,1.,0.));
#324=DIRECTION('center_axis',(1.,0.,-5.9211894646675E-16));
#325=DIRECTION('ref_axis',(-5.9211894646675E-16,0.,-1.));
#326=DIRECTION('',(-5.9211894646675E-16,0.,-1.));
#327=DIRECTION('',(-5.9211894646675E-16,0.,-1.));
#328=DIRECTION('center_axis',(0.,1.,0.));
#329=DIRECTION('ref_axis',(0.,0.,1.));
#330=DIRECTION('center_axis',(0.,1.,0.));
#331=DIRECTION('ref_axis',(0.,0.,1.));
#332=CARTESIAN_POINT('',(0.,0.,0.));
#333=CARTESIAN_POINT('Origin',(-140.5,0.,-9.74999999999999));
#334=CARTESIAN_POINT('',(-140.5,0.,-9.74999999999999));
#335=CARTESIAN_POINT('',(-140.5,0.,-50.25));
#336=CARTESIAN_POINT('',(-140.5,0.,-9.74999999999999));
#337=CARTESIAN_POINT('',(-140.5,6.,-50.25));
#338=CARTESIAN_POINT('',(-140.5,0.,-50.25));
#339=CARTESIAN_POINT('',(-140.5,6.,-9.74999999999999));
#340=CARTESIAN_POINT('',(-140.5,6.,-9.74999999999999));
#341=CARTESIAN_POINT('',(-140.5,0.,-9.74999999999999));
#342=CARTESIAN_POINT('Origin',(-100.,0.,-9.75));
#343=CARTESIAN_POINT('',(-100.,0.,-9.75));
#344=CARTESIAN_POINT('',(-100.,0.,-9.75));
#345=CARTESIAN_POINT('',(-100.,6.,-9.75));
#346=CARTESIAN_POINT('',(-100.,6.,-9.75));
#347=CARTESIAN_POINT('',(-100.,0.,-9.75));
#348=CARTESIAN_POINT('Origin',(-100.,0.,-50.25));
#349=CARTESIAN_POINT('',(-100.,0.,-50.25));
#350=CARTESIAN_POINT('',(-100.,0.,-50.25));
#351=CARTESIAN_POINT('',(-100.,6.,-50.25));
#352=CARTESIAN_POINT('',(-100.,6.,-50.25));
#353=CARTESIAN_POINT('',(-100.,0.,-50.25));
#354=CARTESIAN_POINT('Origin',(-140.5,0.,-50.25));
#355=CARTESIAN_POINT('',(-140.5,0.,-50.25));
#356=CARTESIAN_POINT('',(-140.5,6.,-50.25));
#357=CARTESIAN_POINT('Origin',(-146.25,0.,0.));
#358=CARTESIAN_POINT('',(-146.25,0.,0.));
#359=CARTESIAN_POINT('',(0.,0.,0.));
#360=CARTESIAN_POINT('',(-146.25,0.,0.));
#361=CARTESIAN_POINT('',(0.,6.,0.));
#362=CARTESIAN_POINT('',(0.,0.,0.));
#363=CARTESIAN_POINT('',(-146.25,6.,0.));
#364=CARTESIAN_POINT('',(-146.25,6.,0.));
#365=CARTESIAN_POINT('',(-146.25,0.,0.));
#366=CARTESIAN_POINT('Origin',(-146.25,0.,-4.));
#367=CARTESIAN_POINT('',(-150.25,0.,-4.));
#368=CARTESIAN_POINT('Origin',(-146.25,0.,-4.));
#369=CARTESIAN_POINT('',(-150.25,6.,-4.));
#370=CARTESIAN_POINT('Origin',(-146.25,6.,-4.));
#371=CARTESIAN_POINT('',(-150.25,0.,-4.));
#372=CARTESIAN_POINT('Origin',(-150.25,0.,-56.));
#373=CARTESIAN_POINT('',(-150.25,0.,-56.));
#374=CARTESIAN_POINT('',(-150.25,0.,-56.));
#375=CARTESIAN_POINT('',(-150.25,6.,-56.));
#376=CARTESIAN_POINT('',(-150.25,6.,-56.));
#377=CARTESIAN_POINT('',(-150.25,0.,-56.));
#378=CARTESIAN_POINT('Origin',(-146.25,0.,-56.));
#379=CARTESIAN_POINT('',(-146.25,0.,-60.));
#380=CARTESIAN_POINT('Origin',(-146.25,0.,-56.));
#381=CARTESIAN_POINT('',(-146.25,6.,-60.));
#382=CARTESIAN_POINT('Origin',(-146.25,6.,-56.));
#383=CARTESIAN_POINT('',(-146.25,0.,-60.));
#384=CARTESIAN_POINT('Origin',(-3.5527136788005E-14,0.,-60.));
#385=CARTESIAN_POINT('',(-3.5527136788005E-14,0.,-60.));
#386=CARTESIAN_POINT('',(-3.5527136788005E-14,0.,-60.));
#387=CARTESIAN_POINT('',(-3.5527136788005E-14,6.,-60.));
#388=CARTESIAN_POINT('',(-3.5527136788005E-14,6.,-60.));
#389=CARTESIAN_POINT('',(-3.5527136788005E-14,0.,-60.));
#390=CARTESIAN_POINT('Origin',(0.,0.,0.));
#391=CARTESIAN_POINT('',(0.,0.,0.));
#392=CARTESIAN_POINT('',(0.,6.,0.));
#393=CARTESIAN_POINT('Origin',(-75.125,6.,-30.));
#394=CARTESIAN_POINT('Origin',(-75.125,0.,-30.));
#395=UNCERTAINTY_MEASURE_WITH_UNIT(LENGTH_MEASURE(0.01),#399,
'DISTANCE_ACCURACY_VALUE',
'Maximum model space distance between geometric entities at asserted c
onnectivities');
#396=UNCERTAINTY_MEASURE_WITH_UNIT(LENGTH_MEASURE(0.01),#399,
'DISTANCE_ACCURACY_VALUE',
'Maximum model space distance between geometric entities at asserted c
onnectivities');
#397=(
GEOMETRIC_REPRESENTATION_CONTEXT(3)
GLOBAL_UNCERTAINTY_ASSIGNED_CONTEXT((#395))
GLOBAL_UNIT_ASSIGNED_CONTEXT((#399,#401,#402))
REPRESENTATION_CONTEXT('','3D')
);
#398=(
GEOMETRIC_REPRESENTATION_CONTEXT(3)
GLOBAL_UNCERTAINTY_ASSIGNED_CONTEXT((#396))
GLOBAL_UNIT_ASSIGNED_CONTEXT((#399,#401,#402))
REPRESENTATION_CONTEXT('','3D')
);
#399=(
LENGTH_UNIT()
NAMED_UNIT(*)
SI_UNIT(.MILLI.,.METRE.)
);
#400=(
LENGTH_UNIT()
NAMED_UNIT(*)
SI_UNIT(.CENTI.,.METRE.)
);
#401=(
NAMED_UNIT(*)
PLANE_ANGLE_UNIT()
SI_UNIT($,.RADIAN.)
);
#402=(
NAMED_UNIT(*)
SI_UNIT($,.STERADIAN.)
SOLID_ANGLE_UNIT()
);
#403=SHAPE_DEFINITION_REPRESENTATION(#404,#405);
#404=PRODUCT_DEFINITION_SHAPE('',$,#407);
#405=SHAPE_REPRESENTATION('',(#255),#397);
#406=PRODUCT_DEFINITION_CONTEXT('part definition',#411,'design');
#407=PRODUCT_DEFINITION('42016','42016',#408,#406);
#408=PRODUCT_DEFINITION_FORMATION('',$,#413);
#409=PRODUCT_RELATED_PRODUCT_CATEGORY('42016','42016',(#413));
#410=APPLICATION_PROTOCOL_DEFINITION('international standard',
'automotive_design',2009,#411);
#411=APPLICATION_CONTEXT(
'Core Data for Automotive Mechanical Design Process');
#412=PRODUCT_CONTEXT('part definition',#411,'mechanical');
#413=PRODUCT('42016','42016',$,(#412));
#414=PRESENTATION_STYLE_ASSIGNMENT((#415));
#415=SURFACE_STYLE_USAGE(.BOTH.,#418);
#416=SURFACE_STYLE_RENDERING_WITH_PROPERTIES($,#422,(#417));
#417=SURFACE_STYLE_TRANSPARENT(0.);
#418=SURFACE_SIDE_STYLE('',(#419,#416));
#419=SURFACE_STYLE_FILL_AREA(#420);
#420=FILL_AREA_STYLE('',(#421));
#421=FILL_AREA_STYLE_COLOUR('',#422);
#422=COLOUR_RGB('',0.956862745098039,0.956862745098039,0.956862745098039);
ENDSEC;
END-ISO-10303-21;
