ISO-10303-21;
HEADER;
/* Generated by software containing ST-Developer
 * from STEP Tools, Inc. (www.steptools.com) 
 */

FILE_DESCRIPTION(
/* description */ (''),
/* implementation_level */ '2;1');

FILE_NAME(
/* name */ 
'C:\\Users\\O.Boryczka\\Desktop\\Korrigierte Zeichnungen\\Abdeckkappen
 V2A\\43014.ipt.step',
/* time_stamp */ '2022-07-18T12:51:38+02:00',
/* author */ ('Abt. Technik'),
/* organization */ (''),
/* preprocessor_version */ 'ST-DEVELOPER v18.1',
/* originating_system */ 'Autodesk Inventor 2022',
/* authorisation */ '');

FILE_SCHEMA (('AUTOMOTIVE_DESIGN { 1 0 10303 214 3 1 1 }'));
ENDSEC;

DATA;
#10=MECHANICAL_DESIGN_GEOMETRIC_PRESENTATION_REPRESENTATION('',(#13),#442);
#11=SHAPE_REPRESENTATION_RELATIONSHIP('SRR','None',#449,#12);
#12=ADVANCED_BREP_SHAPE_REPRESENTATION('',(#14),#441);
#13=STYLED_ITEM('',(#458),#14);
#14=MANIFOLD_SOLID_BREP('Volumenk\X\F6rper1',#263);
#15=FACE_BOUND('',#50,.T.);
#16=FACE_OUTER_BOUND('',#33,.T.);
#17=FACE_OUTER_BOUND('',#34,.T.);
#18=FACE_OUTER_BOUND('',#35,.T.);
#19=FACE_OUTER_BOUND('',#36,.T.);
#20=FACE_OUTER_BOUND('',#37,.T.);
#21=FACE_OUTER_BOUND('',#38,.T.);
#22=FACE_OUTER_BOUND('',#39,.T.);
#23=FACE_OUTER_BOUND('',#40,.T.);
#24=FACE_OUTER_BOUND('',#41,.T.);
#25=FACE_OUTER_BOUND('',#42,.T.);
#26=FACE_OUTER_BOUND('',#43,.T.);
#27=FACE_OUTER_BOUND('',#44,.T.);
#28=FACE_OUTER_BOUND('',#45,.T.);
#29=FACE_OUTER_BOUND('',#46,.T.);
#30=FACE_OUTER_BOUND('',#47,.T.);
#31=FACE_OUTER_BOUND('',#48,.T.);
#32=FACE_OUTER_BOUND('',#49,.T.);
#33=EDGE_LOOP('',(#165,#166,#167));
#34=EDGE_LOOP('',(#168,#169,#170));
#35=EDGE_LOOP('',(#171,#172,#173));
#36=EDGE_LOOP('',(#174,#175,#176));
#37=EDGE_LOOP('',(#177,#178,#179,#180));
#38=EDGE_LOOP('',(#181,#182,#183,#184));
#39=EDGE_LOOP('',(#185,#186,#187,#188));
#40=EDGE_LOOP('',(#189,#190,#191,#192));
#41=EDGE_LOOP('',(#193,#194,#195));
#42=EDGE_LOOP('',(#196,#197,#198));
#43=EDGE_LOOP('',(#199,#200,#201));
#44=EDGE_LOOP('',(#202,#203,#204));
#45=EDGE_LOOP('',(#205,#206,#207,#208));
#46=EDGE_LOOP('',(#209,#210,#211,#212));
#47=EDGE_LOOP('',(#213,#214,#215,#216));
#48=EDGE_LOOP('',(#217,#218,#219,#220));
#49=EDGE_LOOP('',(#221,#222,#223,#224));
#50=EDGE_LOOP('',(#225,#226,#227,#228));
#51=LINE('',#375,#83);
#52=LINE('',#377,#84);
#53=LINE('',#378,#85);
#54=LINE('',#381,#86);
#55=LINE('',#382,#87);
#56=LINE('',#385,#88);
#57=LINE('',#386,#89);
#58=LINE('',#388,#90);
#59=LINE('',#392,#91);
#60=LINE('',#393,#92);
#61=LINE('',#394,#93);
#62=LINE('',#397,#94);
#63=LINE('',#398,#95);
#64=LINE('',#401,#96);
#65=LINE('',#402,#97);
#66=LINE('',#404,#98);
#67=LINE('',#408,#99);
#68=LINE('',#410,#100);
#69=LINE('',#411,#101);
#70=LINE('',#414,#102);
#71=LINE('',#415,#103);
#72=LINE('',#418,#104);
#73=LINE('',#419,#105);
#74=LINE('',#421,#106);
#75=LINE('',#425,#107);
#76=LINE('',#426,#108);
#77=LINE('',#427,#109);
#78=LINE('',#430,#110);
#79=LINE('',#431,#111);
#80=LINE('',#434,#112);
#81=LINE('',#435,#113);
#82=LINE('',#437,#114);
#83=VECTOR('',#307,10.);
#84=VECTOR('',#308,10.);
#85=VECTOR('',#309,10.);
#86=VECTOR('',#312,10.);
#87=VECTOR('',#313,10.);
#88=VECTOR('',#316,10.);
#89=VECTOR('',#317,10.);
#90=VECTOR('',#320,10.);
#91=VECTOR('',#323,10.);
#92=VECTOR('',#324,10.);
#93=VECTOR('',#325,10.);
#94=VECTOR('',#328,10.);
#95=VECTOR('',#329,10.);
#96=VECTOR('',#332,10.);
#97=VECTOR('',#333,10.);
#98=VECTOR('',#336,10.);
#99=VECTOR('',#339,10.);
#100=VECTOR('',#340,10.);
#101=VECTOR('',#341,10.);
#102=VECTOR('',#344,10.);
#103=VECTOR('',#345,10.);
#104=VECTOR('',#348,10.);
#105=VECTOR('',#349,10.);
#106=VECTOR('',#352,10.);
#107=VECTOR('',#355,10.);
#108=VECTOR('',#356,10.);
#109=VECTOR('',#357,10.);
#110=VECTOR('',#360,10.);
#111=VECTOR('',#361,10.);
#112=VECTOR('',#364,10.);
#113=VECTOR('',#365,10.);
#114=VECTOR('',#368,10.);
#115=VERTEX_POINT('',#373);
#116=VERTEX_POINT('',#374);
#117=VERTEX_POINT('',#376);
#118=VERTEX_POINT('',#380);
#119=VERTEX_POINT('',#384);
#120=VERTEX_POINT('',#390);
#121=VERTEX_POINT('',#391);
#122=VERTEX_POINT('',#396);
#123=VERTEX_POINT('',#400);
#124=VERTEX_POINT('',#406);
#125=VERTEX_POINT('',#407);
#126=VERTEX_POINT('',#409);
#127=VERTEX_POINT('',#413);
#128=VERTEX_POINT('',#417);
#129=VERTEX_POINT('',#423);
#130=VERTEX_POINT('',#424);
#131=VERTEX_POINT('',#429);
#132=VERTEX_POINT('',#433);
#133=EDGE_CURVE('',#115,#116,#51,.F.);
#134=EDGE_CURVE('',#115,#117,#52,.F.);
#135=EDGE_CURVE('',#116,#117,#53,.T.);
#136=EDGE_CURVE('',#118,#115,#54,.F.);
#137=EDGE_CURVE('',#118,#117,#55,.F.);
#138=EDGE_CURVE('',#119,#118,#56,.F.);
#139=EDGE_CURVE('',#119,#117,#57,.F.);
#140=EDGE_CURVE('',#116,#119,#58,.F.);
#141=EDGE_CURVE('',#120,#121,#59,.T.);
#142=EDGE_CURVE('',#120,#118,#60,.F.);
#143=EDGE_CURVE('',#121,#115,#61,.T.);
#144=EDGE_CURVE('',#122,#120,#62,.T.);
#145=EDGE_CURVE('',#122,#119,#63,.F.);
#146=EDGE_CURVE('',#123,#122,#64,.T.);
#147=EDGE_CURVE('',#123,#116,#65,.F.);
#148=EDGE_CURVE('',#121,#123,#66,.T.);
#149=EDGE_CURVE('',#124,#125,#67,.T.);
#150=EDGE_CURVE('',#125,#126,#68,.T.);
#151=EDGE_CURVE('',#124,#126,#69,.T.);
#152=EDGE_CURVE('',#127,#124,#70,.T.);
#153=EDGE_CURVE('',#127,#126,#71,.T.);
#154=EDGE_CURVE('',#128,#127,#72,.T.);
#155=EDGE_CURVE('',#128,#126,#73,.T.);
#156=EDGE_CURVE('',#125,#128,#74,.T.);
#157=EDGE_CURVE('',#129,#130,#75,.T.);
#158=EDGE_CURVE('',#130,#124,#76,.T.);
#159=EDGE_CURVE('',#129,#127,#77,.T.);
#160=EDGE_CURVE('',#131,#129,#78,.T.);
#161=EDGE_CURVE('',#131,#128,#79,.T.);
#162=EDGE_CURVE('',#132,#131,#80,.T.);
#163=EDGE_CURVE('',#132,#125,#81,.T.);
#164=EDGE_CURVE('',#130,#132,#82,.T.);
#165=ORIENTED_EDGE('',*,*,#133,.F.);
#166=ORIENTED_EDGE('',*,*,#134,.T.);
#167=ORIENTED_EDGE('',*,*,#135,.F.);
#168=ORIENTED_EDGE('',*,*,#136,.F.);
#169=ORIENTED_EDGE('',*,*,#137,.T.);
#170=ORIENTED_EDGE('',*,*,#134,.F.);
#171=ORIENTED_EDGE('',*,*,#138,.F.);
#172=ORIENTED_EDGE('',*,*,#139,.T.);
#173=ORIENTED_EDGE('',*,*,#137,.F.);
#174=ORIENTED_EDGE('',*,*,#140,.F.);
#175=ORIENTED_EDGE('',*,*,#135,.T.);
#176=ORIENTED_EDGE('',*,*,#139,.F.);
#177=ORIENTED_EDGE('',*,*,#141,.F.);
#178=ORIENTED_EDGE('',*,*,#142,.T.);
#179=ORIENTED_EDGE('',*,*,#136,.T.);
#180=ORIENTED_EDGE('',*,*,#143,.F.);
#181=ORIENTED_EDGE('',*,*,#144,.F.);
#182=ORIENTED_EDGE('',*,*,#145,.T.);
#183=ORIENTED_EDGE('',*,*,#138,.T.);
#184=ORIENTED_EDGE('',*,*,#142,.F.);
#185=ORIENTED_EDGE('',*,*,#146,.F.);
#186=ORIENTED_EDGE('',*,*,#147,.T.);
#187=ORIENTED_EDGE('',*,*,#140,.T.);
#188=ORIENTED_EDGE('',*,*,#145,.F.);
#189=ORIENTED_EDGE('',*,*,#148,.F.);
#190=ORIENTED_EDGE('',*,*,#143,.T.);
#191=ORIENTED_EDGE('',*,*,#133,.T.);
#192=ORIENTED_EDGE('',*,*,#147,.F.);
#193=ORIENTED_EDGE('',*,*,#149,.T.);
#194=ORIENTED_EDGE('',*,*,#150,.T.);
#195=ORIENTED_EDGE('',*,*,#151,.F.);
#196=ORIENTED_EDGE('',*,*,#152,.T.);
#197=ORIENTED_EDGE('',*,*,#151,.T.);
#198=ORIENTED_EDGE('',*,*,#153,.F.);
#199=ORIENTED_EDGE('',*,*,#154,.T.);
#200=ORIENTED_EDGE('',*,*,#153,.T.);
#201=ORIENTED_EDGE('',*,*,#155,.F.);
#202=ORIENTED_EDGE('',*,*,#156,.T.);
#203=ORIENTED_EDGE('',*,*,#155,.T.);
#204=ORIENTED_EDGE('',*,*,#150,.F.);
#205=ORIENTED_EDGE('',*,*,#157,.T.);
#206=ORIENTED_EDGE('',*,*,#158,.T.);
#207=ORIENTED_EDGE('',*,*,#152,.F.);
#208=ORIENTED_EDGE('',*,*,#159,.F.);
#209=ORIENTED_EDGE('',*,*,#160,.T.);
#210=ORIENTED_EDGE('',*,*,#159,.T.);
#211=ORIENTED_EDGE('',*,*,#154,.F.);
#212=ORIENTED_EDGE('',*,*,#161,.F.);
#213=ORIENTED_EDGE('',*,*,#162,.T.);
#214=ORIENTED_EDGE('',*,*,#161,.T.);
#215=ORIENTED_EDGE('',*,*,#156,.F.);
#216=ORIENTED_EDGE('',*,*,#163,.F.);
#217=ORIENTED_EDGE('',*,*,#164,.T.);
#218=ORIENTED_EDGE('',*,*,#163,.T.);
#219=ORIENTED_EDGE('',*,*,#149,.F.);
#220=ORIENTED_EDGE('',*,*,#158,.F.);
#221=ORIENTED_EDGE('',*,*,#164,.F.);
#222=ORIENTED_EDGE('',*,*,#157,.F.);
#223=ORIENTED_EDGE('',*,*,#160,.F.);
#224=ORIENTED_EDGE('',*,*,#162,.F.);
#225=ORIENTED_EDGE('',*,*,#141,.T.);
#226=ORIENTED_EDGE('',*,*,#148,.T.);
#227=ORIENTED_EDGE('',*,*,#146,.T.);
#228=ORIENTED_EDGE('',*,*,#144,.T.);
#229=PLANE('',#286);
#230=PLANE('',#287);
#231=PLANE('',#288);
#232=PLANE('',#289);
#233=PLANE('',#290);
#234=PLANE('',#291);
#235=PLANE('',#292);
#236=PLANE('',#293);
#237=PLANE('',#294);
#238=PLANE('',#295);
#239=PLANE('',#296);
#240=PLANE('',#297);
#241=PLANE('',#298);
#242=PLANE('',#299);
#243=PLANE('',#300);
#244=PLANE('',#301);
#245=PLANE('',#302);
#246=ADVANCED_FACE('',(#16),#229,.T.);
#247=ADVANCED_FACE('',(#17),#230,.T.);
#248=ADVANCED_FACE('',(#18),#231,.T.);
#249=ADVANCED_FACE('',(#19),#232,.T.);
#250=ADVANCED_FACE('',(#20),#233,.F.);
#251=ADVANCED_FACE('',(#21),#234,.F.);
#252=ADVANCED_FACE('',(#22),#235,.F.);
#253=ADVANCED_FACE('',(#23),#236,.F.);
#254=ADVANCED_FACE('',(#24),#237,.F.);
#255=ADVANCED_FACE('',(#25),#238,.F.);
#256=ADVANCED_FACE('',(#26),#239,.F.);
#257=ADVANCED_FACE('',(#27),#240,.F.);
#258=ADVANCED_FACE('',(#28),#241,.T.);
#259=ADVANCED_FACE('',(#29),#242,.T.);
#260=ADVANCED_FACE('',(#30),#243,.T.);
#261=ADVANCED_FACE('',(#31),#244,.T.);
#262=ADVANCED_FACE('',(#32,#15),#245,.F.);
#263=CLOSED_SHELL('',(#246,#247,#248,#249,#250,#251,#252,#253,#254,#255,
#256,#257,#258,#259,#260,#261,#262));
#264=DERIVED_UNIT_ELEMENT(#267,1.);
#265=DERIVED_UNIT_ELEMENT(#444,-3.);
#266=DIMENSIONAL_EXPONENTS(1.,0.,0.,0.,0.,0.,0.);
#267=(
CONVERSION_BASED_UNIT('gram',#269)
MASS_UNIT()
NAMED_UNIT(#266)
);
#268=(
MASS_UNIT()
NAMED_UNIT(*)
SI_UNIT(.KILO.,.GRAM.)
);
#269=MASS_MEASURE_WITH_UNIT(MASS_MEASURE(0.001),#268);
#270=DERIVED_UNIT((#264,#265));
#271=MEASURE_REPRESENTATION_ITEM('density measure',
POSITIVE_RATIO_MEASURE(8.),#270);
#272=PROPERTY_DEFINITION_REPRESENTATION(#277,#274);
#273=PROPERTY_DEFINITION_REPRESENTATION(#278,#275);
#274=REPRESENTATION('material name',(#276),#441);
#275=REPRESENTATION('density',(#271),#441);
#276=DESCRIPTIVE_REPRESENTATION_ITEM('Edelstahl AISI 304',
'Edelstahl AISI 304');
#277=PROPERTY_DEFINITION('material property','material name',#451);
#278=PROPERTY_DEFINITION('material property','density of part',#451);
#279=DATE_TIME_ROLE('creation_date');
#280=APPLIED_DATE_AND_TIME_ASSIGNMENT(#281,#279,(#451));
#281=DATE_AND_TIME(#282,#283);
#282=CALENDAR_DATE(2021,18,6);
#283=LOCAL_TIME(0,0,0.,#284);
#284=COORDINATED_UNIVERSAL_TIME_OFFSET(0,0,.BEHIND.);
#285=AXIS2_PLACEMENT_3D('placement',#371,#303,#304);
#286=AXIS2_PLACEMENT_3D('',#372,#305,#306);
#287=AXIS2_PLACEMENT_3D('',#379,#310,#311);
#288=AXIS2_PLACEMENT_3D('',#383,#314,#315);
#289=AXIS2_PLACEMENT_3D('',#387,#318,#319);
#290=AXIS2_PLACEMENT_3D('',#389,#321,#322);
#291=AXIS2_PLACEMENT_3D('',#395,#326,#327);
#292=AXIS2_PLACEMENT_3D('',#399,#330,#331);
#293=AXIS2_PLACEMENT_3D('',#403,#334,#335);
#294=AXIS2_PLACEMENT_3D('',#405,#337,#338);
#295=AXIS2_PLACEMENT_3D('',#412,#342,#343);
#296=AXIS2_PLACEMENT_3D('',#416,#346,#347);
#297=AXIS2_PLACEMENT_3D('',#420,#350,#351);
#298=AXIS2_PLACEMENT_3D('',#422,#353,#354);
#299=AXIS2_PLACEMENT_3D('',#428,#358,#359);
#300=AXIS2_PLACEMENT_3D('',#432,#362,#363);
#301=AXIS2_PLACEMENT_3D('',#436,#366,#367);
#302=AXIS2_PLACEMENT_3D('',#438,#369,#370);
#303=DIRECTION('axis',(0.,0.,1.));
#304=DIRECTION('refdir',(1.,0.,0.));
#305=DIRECTION('center_axis',(-0.299340074537325,-0.954146487587723,5.21308616383292E-17));
#306=DIRECTION('ref_axis',(0.,-5.46361196278432E-17,-1.));
#307=DIRECTION('',(1.7415263131375E-16,0.,1.));
#308=DIRECTION('',(0.690324696174758,-0.216572453701885,0.690324696174758));
#309=DIRECTION('',(-0.690324696174758,0.216572453701885,0.690324696174759));
#310=DIRECTION('center_axis',(-2.60654308191646E-17,-0.954146487587723,
-0.299340074537325));
#311=DIRECTION('ref_axis',(0.,0.299340074537325,-0.954146487587723));
#312=DIRECTION('',(-1.,0.,8.7076315656875E-17));
#313=DIRECTION('',(-0.690324696174758,-0.216572453701885,0.690324696174758));
#314=DIRECTION('center_axis',(0.299340074537325,-0.954146487587723,-7.81962924574938E-17));
#315=DIRECTION('ref_axis',(0.,8.19541794417647E-17,-1.));
#316=DIRECTION('',(-2.61228946970625E-16,1.29183011250619E-32,-1.));
#317=DIRECTION('',(-0.690324696174758,-0.216572453701885,-0.690324696174758));
#318=DIRECTION('center_axis',(2.60654308191646E-17,-0.954146487587723,0.299340074537325));
#319=DIRECTION('ref_axis',(0.,-0.299340074537325,-0.954146487587723));
#320=DIRECTION('',(1.,-6.45915056253093E-33,-8.7076315656875E-17));
#321=DIRECTION('center_axis',(8.7076315656875E-17,0.,1.));
#322=DIRECTION('ref_axis',(1.,0.,-8.7076315656875E-17));
#323=DIRECTION('',(1.,0.,-8.7076315656875E-17));
#324=DIRECTION('',(0.,-1.,0.));
#325=DIRECTION('',(0.,1.,0.));
#326=DIRECTION('center_axis',(-1.,0.,2.61228946970625E-16));
#327=DIRECTION('ref_axis',(2.61228946970625E-16,0.,1.));
#328=DIRECTION('',(2.61228946970625E-16,0.,1.));
#329=DIRECTION('',(0.,-1.,0.));
#330=DIRECTION('center_axis',(-8.7076315656875E-17,0.,-1.));
#331=DIRECTION('ref_axis',(-1.,0.,8.7076315656875E-17));
#332=DIRECTION('',(-1.,0.,8.7076315656875E-17));
#333=DIRECTION('',(0.,-1.,0.));
#334=DIRECTION('center_axis',(1.,0.,-1.7415263131375E-16));
#335=DIRECTION('ref_axis',(-1.7415263131375E-16,0.,-1.));
#336=DIRECTION('',(-1.7415263131375E-16,0.,-1.));
#337=DIRECTION('center_axis',(-0.299340074537325,-0.954146487587723,5.21308616383292E-17));
#338=DIRECTION('ref_axis',(0.,-5.46361196278432E-17,-1.));
#339=DIRECTION('',(-1.7415263131375E-16,0.,-1.));
#340=DIRECTION('',(-0.690324696174758,0.216572453701885,0.690324696174759));
#341=DIRECTION('',(-0.690324696174758,0.216572453701885,-0.690324696174758));
#342=DIRECTION('center_axis',(-2.60654308191646E-17,-0.954146487587723,
-0.299340074537325));
#343=DIRECTION('ref_axis',(0.,0.299340074537325,-0.954146487587723));
#344=DIRECTION('',(1.,0.,-8.7076315656875E-17));
#345=DIRECTION('',(0.690324696174758,0.216572453701885,-0.690324696174758));
#346=DIRECTION('center_axis',(0.299340074537325,-0.954146487587723,-7.81962924574938E-17));
#347=DIRECTION('ref_axis',(0.,8.19541794417647E-17,-1.));
#348=DIRECTION('',(2.61228946970625E-16,0.,1.));
#349=DIRECTION('',(0.690324696174759,0.216572453701885,0.690324696174758));
#350=DIRECTION('center_axis',(2.60654308191646E-17,-0.954146487587723,0.299340074537325));
#351=DIRECTION('ref_axis',(0.,-0.299340074537325,-0.954146487587723));
#352=DIRECTION('',(-1.,0.,8.7076315656875E-17));
#353=DIRECTION('center_axis',(8.7076315656875E-17,0.,1.));
#354=DIRECTION('ref_axis',(1.,0.,-8.7076315656875E-17));
#355=DIRECTION('',(1.,0.,-8.7076315656875E-17));
#356=DIRECTION('',(0.,1.,0.));
#357=DIRECTION('',(0.,1.,0.));
#358=DIRECTION('center_axis',(-1.,0.,2.61228946970625E-16));
#359=DIRECTION('ref_axis',(2.61228946970625E-16,0.,1.));
#360=DIRECTION('',(2.61228946970625E-16,0.,1.));
#361=DIRECTION('',(0.,1.,0.));
#362=DIRECTION('center_axis',(-8.7076315656875E-17,0.,-1.));
#363=DIRECTION('ref_axis',(-1.,0.,8.7076315656875E-17));
#364=DIRECTION('',(-1.,0.,8.7076315656875E-17));
#365=DIRECTION('',(0.,1.,0.));
#366=DIRECTION('center_axis',(1.,0.,-1.7415263131375E-16));
#367=DIRECTION('ref_axis',(-1.7415263131375E-16,0.,-1.));
#368=DIRECTION('',(-1.7415263131375E-16,0.,-1.));
#369=DIRECTION('center_axis',(0.,1.,0.));
#370=DIRECTION('ref_axis',(0.,0.,1.));
#371=CARTESIAN_POINT('',(0.,0.,0.));
#372=CARTESIAN_POINT('Origin',(50.7006599254627,5.04585351241228,-51.));
#373=CARTESIAN_POINT('',(50.,5.2656683909888,50.));
#374=CARTESIAN_POINT('',(50.,5.2656683909888,-50.));
#375=CARTESIAN_POINT('',(50.,5.2656683909888,-8.82077331216354E-15));
#376=CARTESIAN_POINT('',(2.22044604925031E-15,20.9519429007927,-1.37166649083754E-15));
#377=CARTESIAN_POINT('',(26.5393524014377,12.6258715591652,26.5393524014377));
#378=CARTESIAN_POINT('',(26.5393524014377,12.6258715591652,-26.5393524014377));
#379=CARTESIAN_POINT('Origin',(51.,5.04585351241228,50.7006599254627));
#380=CARTESIAN_POINT('',(-50.,5.2656683909888,50.));
#381=CARTESIAN_POINT('',(8.8512787545824E-15,5.2656683909888,50.));
#382=CARTESIAN_POINT('',(-26.5393524014377,12.6258715591652,26.5393524014377));
#383=CARTESIAN_POINT('Origin',(-50.7006599254627,5.04585351241228,51.));
#384=CARTESIAN_POINT('',(-50.,5.2656683909888,-50.));
#385=CARTESIAN_POINT('',(-50.,5.2656683909888,-9.1516327256567E-17));
#386=CARTESIAN_POINT('',(-26.5393524014377,12.6258715591652,-26.5393524014377));
#387=CARTESIAN_POINT('Origin',(-51.,5.04585351241228,-50.7006599254627));
#388=CARTESIAN_POINT('',(-1.77330629515837E-14,5.2656683909888,-50.));
#389=CARTESIAN_POINT('Origin',(-51.,0.,50.));
#390=CARTESIAN_POINT('',(-50.,0.,50.));
#391=CARTESIAN_POINT('',(50.,0.,50.));
#392=CARTESIAN_POINT('',(-25.5,0.,50.));
#393=CARTESIAN_POINT('',(-50.,0.,50.));
#394=CARTESIAN_POINT('',(50.,0.,50.));
#395=CARTESIAN_POINT('Origin',(-50.,0.,-51.));
#396=CARTESIAN_POINT('',(-50.,0.,-50.));
#397=CARTESIAN_POINT('',(-50.,0.,-25.5));
#398=CARTESIAN_POINT('',(-50.,0.,-50.));
#399=CARTESIAN_POINT('Origin',(51.,0.,-50.));
#400=CARTESIAN_POINT('',(50.,0.,-50.));
#401=CARTESIAN_POINT('',(25.5,0.,-50.));
#402=CARTESIAN_POINT('',(50.,0.,-50.));
#403=CARTESIAN_POINT('Origin',(50.,0.,51.));
#404=CARTESIAN_POINT('',(50.,0.,25.5));
#405=CARTESIAN_POINT('Origin',(51.,6.,-51.));
#406=CARTESIAN_POINT('',(51.,6.,51.));
#407=CARTESIAN_POINT('',(51.,6.,-51.));
#408=CARTESIAN_POINT('',(51.,6.,51.));
#409=CARTESIAN_POINT('',(0.,22.,0.));
#410=CARTESIAN_POINT('',(51.,6.,-51.));
#411=CARTESIAN_POINT('',(51.,6.,51.));
#412=CARTESIAN_POINT('Origin',(51.,6.,51.));
#413=CARTESIAN_POINT('',(-51.,6.,51.));
#414=CARTESIAN_POINT('',(-51.,6.,51.));
#415=CARTESIAN_POINT('',(-51.,6.,51.));
#416=CARTESIAN_POINT('Origin',(-51.,6.,51.));
#417=CARTESIAN_POINT('',(-51.,6.,-51.));
#418=CARTESIAN_POINT('',(-51.,6.,-51.));
#419=CARTESIAN_POINT('',(-51.,6.,-51.));
#420=CARTESIAN_POINT('Origin',(-51.,6.,-51.));
#421=CARTESIAN_POINT('',(51.,6.,-51.));
#422=CARTESIAN_POINT('Origin',(-51.,0.,51.));
#423=CARTESIAN_POINT('',(-51.,0.,51.));
#424=CARTESIAN_POINT('',(51.,0.,51.));
#425=CARTESIAN_POINT('',(-51.,0.,51.));
#426=CARTESIAN_POINT('',(51.,0.,51.));
#427=CARTESIAN_POINT('',(-51.,0.,51.));
#428=CARTESIAN_POINT('Origin',(-51.,0.,-51.));
#429=CARTESIAN_POINT('',(-51.,0.,-51.));
#430=CARTESIAN_POINT('',(-51.,0.,-51.));
#431=CARTESIAN_POINT('',(-51.,0.,-51.));
#432=CARTESIAN_POINT('Origin',(51.,0.,-51.));
#433=CARTESIAN_POINT('',(51.,0.,-51.));
#434=CARTESIAN_POINT('',(51.,0.,-51.));
#435=CARTESIAN_POINT('',(51.,0.,-51.));
#436=CARTESIAN_POINT('Origin',(51.,0.,51.));
#437=CARTESIAN_POINT('',(51.,0.,51.));
#438=CARTESIAN_POINT('Origin',(-4.44089209850063E-15,0.,-4.44089209850063E-15));
#439=UNCERTAINTY_MEASURE_WITH_UNIT(LENGTH_MEASURE(0.01),#443,
'DISTANCE_ACCURACY_VALUE',
'Maximum model space distance between geometric entities at asserted c
onnectivities');
#440=UNCERTAINTY_MEASURE_WITH_UNIT(LENGTH_MEASURE(0.01),#443,
'DISTANCE_ACCURACY_VALUE',
'Maximum model space distance between geometric entities at asserted c
onnectivities');
#441=(
GEOMETRIC_REPRESENTATION_CONTEXT(3)
GLOBAL_UNCERTAINTY_ASSIGNED_CONTEXT((#439))
GLOBAL_UNIT_ASSIGNED_CONTEXT((#443,#445,#446))
REPRESENTATION_CONTEXT('','3D')
);
#442=(
GEOMETRIC_REPRESENTATION_CONTEXT(3)
GLOBAL_UNCERTAINTY_ASSIGNED_CONTEXT((#440))
GLOBAL_UNIT_ASSIGNED_CONTEXT((#443,#445,#446))
REPRESENTATION_CONTEXT('','3D')
);
#443=(
LENGTH_UNIT()
NAMED_UNIT(*)
SI_UNIT(.MILLI.,.METRE.)
);
#444=(
LENGTH_UNIT()
NAMED_UNIT(*)
SI_UNIT(.CENTI.,.METRE.)
);
#445=(
NAMED_UNIT(*)
PLANE_ANGLE_UNIT()
SI_UNIT($,.RADIAN.)
);
#446=(
NAMED_UNIT(*)
SI_UNIT($,.STERADIAN.)
SOLID_ANGLE_UNIT()
);
#447=SHAPE_DEFINITION_REPRESENTATION(#448,#449);
#448=PRODUCT_DEFINITION_SHAPE('',$,#451);
#449=SHAPE_REPRESENTATION('',(#285),#441);
#450=PRODUCT_DEFINITION_CONTEXT('part definition',#455,'design');
#451=PRODUCT_DEFINITION('43014','43014',#452,#450);
#452=PRODUCT_DEFINITION_FORMATION('',$,#457);
#453=PRODUCT_RELATED_PRODUCT_CATEGORY('43014','43014',(#457));
#454=APPLICATION_PROTOCOL_DEFINITION('international standard',
'automotive_design',2009,#455);
#455=APPLICATION_CONTEXT(
'Core Data for Automotive Mechanical Design Process');
#456=PRODUCT_CONTEXT('part definition',#455,'mechanical');
#457=PRODUCT('43014','43014',$,(#456));
#458=PRESENTATION_STYLE_ASSIGNMENT((#459));
#459=SURFACE_STYLE_USAGE(.BOTH.,#462);
#460=SURFACE_STYLE_RENDERING_WITH_PROPERTIES($,#466,(#461));
#461=SURFACE_STYLE_TRANSPARENT(0.);
#462=SURFACE_SIDE_STYLE('',(#463,#460));
#463=SURFACE_STYLE_FILL_AREA(#464);
#464=FILL_AREA_STYLE('',(#465));
#465=FILL_AREA_STYLE_COLOUR('',#466);
#466=COLOUR_RGB('',0.956862745098039,0.956862745098039,0.956862745098039);
ENDSEC;
END-ISO-10303-21;
