ISO-10303-21;
HEADER;
/* Generated by software containing ST-Developer
 * from STEP Tools, Inc. (www.steptools.com) 
 */

FILE_DESCRIPTION(
/* description */ (''),
/* implementation_level */ '2;1');

FILE_NAME(
/* name */ 
'C:\\Users\\O.Boryczka\\Desktop\\Korrigierte Zeichnungen\\Abschlusssto
pfen rund V2A\\IPT_Daten\\\X\DCbersteckkstopfen\\43037.ipt.step',
/* time_stamp */ '2022-07-18T12:52:50+02:00',
/* author */ ('Abt. Technik'),
/* organization */ (''),
/* preprocessor_version */ 'ST-DEVELOPER v18.1',
/* originating_system */ 'Autodesk Inventor 2022',
/* authorisation */ '');

FILE_SCHEMA (('AUTOMOTIVE_DESIGN { 1 0 10303 214 3 1 1 }'));
ENDSEC;

DATA;
#10=MECHANICAL_DESIGN_GEOMETRIC_PRESENTATION_REPRESENTATION('',(#13),#221);
#11=SHAPE_REPRESENTATION_RELATIONSHIP('SRR','None',#228,#12);
#12=ADVANCED_BREP_SHAPE_REPRESENTATION('',(#14),#220);
#13=STYLED_ITEM('',(#237),#14);
#14=MANIFOLD_SOLID_BREP('Volumenk\X\F6rper1',#110);
#15=SPHERICAL_SURFACE('',#143,50.);
#16=SPHERICAL_SURFACE('',#146,50.);
#17=TOROIDAL_SURFACE('',#138,21.7,0.5);
#18=FACE_BOUND('',#32,.T.);
#19=FACE_BOUND('',#39,.T.);
#20=PLANE('',#136);
#21=PLANE('',#149);
#22=FACE_OUTER_BOUND('',#30,.T.);
#23=FACE_OUTER_BOUND('',#31,.T.);
#24=FACE_OUTER_BOUND('',#33,.T.);
#25=FACE_OUTER_BOUND('',#34,.T.);
#26=FACE_OUTER_BOUND('',#35,.T.);
#27=FACE_OUTER_BOUND('',#36,.T.);
#28=FACE_OUTER_BOUND('',#37,.T.);
#29=FACE_OUTER_BOUND('',#38,.T.);
#30=EDGE_LOOP('',(#75,#76,#77,#78));
#31=EDGE_LOOP('',(#79));
#32=EDGE_LOOP('',(#80));
#33=EDGE_LOOP('',(#81,#82,#83,#84,#85));
#34=EDGE_LOOP('',(#86));
#35=EDGE_LOOP('',(#87,#88,#89,#90,#91));
#36=EDGE_LOOP('',(#92));
#37=EDGE_LOOP('',(#93,#94,#95,#96));
#38=EDGE_LOOP('',(#97));
#39=EDGE_LOOP('',(#98));
#40=LINE('',#194,#43);
#41=LINE('',#210,#44);
#42=LINE('',#216,#45);
#43=VECTOR('',#156,21.35);
#44=VECTOR('',#177,22.2);
#45=VECTOR('',#186,20.);
#46=CIRCLE('',#134,21.35);
#47=CIRCLE('',#135,21.35);
#48=CIRCLE('',#137,20.);
#49=CIRCLE('',#139,21.9191919191919);
#50=CIRCLE('',#140,0.5);
#51=CIRCLE('',#141,22.2);
#52=CIRCLE('',#142,22.2);
#53=CIRCLE('',#145,22.2);
#54=CIRCLE('',#147,20.);
#55=VERTEX_POINT('',#191);
#56=VERTEX_POINT('',#193);
#57=VERTEX_POINT('',#197);
#58=VERTEX_POINT('',#200);
#59=VERTEX_POINT('',#202);
#60=VERTEX_POINT('',#204);
#61=VERTEX_POINT('',#209);
#62=VERTEX_POINT('',#213);
#63=EDGE_CURVE('',#55,#55,#46,.T.);
#64=EDGE_CURVE('',#55,#56,#40,.T.);
#65=EDGE_CURVE('',#56,#56,#47,.T.);
#66=EDGE_CURVE('',#57,#57,#48,.T.);
#67=EDGE_CURVE('',#58,#58,#49,.T.);
#68=EDGE_CURVE('',#58,#59,#50,.T.);
#69=EDGE_CURVE('',#59,#60,#51,.T.);
#70=EDGE_CURVE('',#60,#59,#52,.T.);
#71=EDGE_CURVE('',#60,#61,#41,.T.);
#72=EDGE_CURVE('',#61,#61,#53,.T.);
#73=EDGE_CURVE('',#62,#62,#54,.T.);
#74=EDGE_CURVE('',#62,#57,#42,.T.);
#75=ORIENTED_EDGE('',*,*,#63,.F.);
#76=ORIENTED_EDGE('',*,*,#64,.T.);
#77=ORIENTED_EDGE('',*,*,#65,.T.);
#78=ORIENTED_EDGE('',*,*,#64,.F.);
#79=ORIENTED_EDGE('',*,*,#65,.F.);
#80=ORIENTED_EDGE('',*,*,#66,.F.);
#81=ORIENTED_EDGE('',*,*,#67,.T.);
#82=ORIENTED_EDGE('',*,*,#68,.T.);
#83=ORIENTED_EDGE('',*,*,#69,.T.);
#84=ORIENTED_EDGE('',*,*,#70,.T.);
#85=ORIENTED_EDGE('',*,*,#68,.F.);
#86=ORIENTED_EDGE('',*,*,#67,.F.);
#87=ORIENTED_EDGE('',*,*,#69,.F.);
#88=ORIENTED_EDGE('',*,*,#70,.F.);
#89=ORIENTED_EDGE('',*,*,#71,.T.);
#90=ORIENTED_EDGE('',*,*,#72,.T.);
#91=ORIENTED_EDGE('',*,*,#71,.F.);
#92=ORIENTED_EDGE('',*,*,#73,.T.);
#93=ORIENTED_EDGE('',*,*,#73,.F.);
#94=ORIENTED_EDGE('',*,*,#74,.T.);
#95=ORIENTED_EDGE('',*,*,#66,.T.);
#96=ORIENTED_EDGE('',*,*,#74,.F.);
#97=ORIENTED_EDGE('',*,*,#72,.F.);
#98=ORIENTED_EDGE('',*,*,#63,.T.);
#99=CYLINDRICAL_SURFACE('',#133,21.35);
#100=CYLINDRICAL_SURFACE('',#144,22.2);
#101=CYLINDRICAL_SURFACE('',#148,20.);
#102=ADVANCED_FACE('',(#22),#99,.F.);
#103=ADVANCED_FACE('',(#23,#18),#20,.T.);
#104=ADVANCED_FACE('',(#24),#17,.T.);
#105=ADVANCED_FACE('',(#25),#15,.T.);
#106=ADVANCED_FACE('',(#26),#100,.T.);
#107=ADVANCED_FACE('',(#27),#16,.F.);
#108=ADVANCED_FACE('',(#28),#101,.F.);
#109=ADVANCED_FACE('',(#29,#19),#21,.F.);
#110=CLOSED_SHELL('',(#102,#103,#104,#105,#106,#107,#108,#109));
#111=DERIVED_UNIT_ELEMENT(#114,1.);
#112=DERIVED_UNIT_ELEMENT(#223,-3.);
#113=DIMENSIONAL_EXPONENTS(1.,0.,0.,0.,0.,0.,0.);
#114=(
CONVERSION_BASED_UNIT('gram',#116)
MASS_UNIT()
NAMED_UNIT(#113)
);
#115=(
MASS_UNIT()
NAMED_UNIT(*)
SI_UNIT(.KILO.,.GRAM.)
);
#116=MASS_MEASURE_WITH_UNIT(MASS_MEASURE(0.001),#115);
#117=DERIVED_UNIT((#111,#112));
#118=MEASURE_REPRESENTATION_ITEM('density measure',
POSITIVE_RATIO_MEASURE(8.),#117);
#119=PROPERTY_DEFINITION_REPRESENTATION(#124,#121);
#120=PROPERTY_DEFINITION_REPRESENTATION(#125,#122);
#121=REPRESENTATION('material name',(#123),#220);
#122=REPRESENTATION('density',(#118),#220);
#123=DESCRIPTIVE_REPRESENTATION_ITEM('Edelstahl AISI 304',
'Edelstahl AISI 304');
#124=PROPERTY_DEFINITION('material property','material name',#230);
#125=PROPERTY_DEFINITION('material property','density of part',#230);
#126=DATE_TIME_ROLE('creation_date');
#127=APPLIED_DATE_AND_TIME_ASSIGNMENT(#128,#126,(#230));
#128=DATE_AND_TIME(#129,#130);
#129=CALENDAR_DATE(2021,11,5);
#130=LOCAL_TIME(0,0,0.,#131);
#131=COORDINATED_UNIVERSAL_TIME_OFFSET(0,0,.BEHIND.);
#132=AXIS2_PLACEMENT_3D('placement',#189,#150,#151);
#133=AXIS2_PLACEMENT_3D('',#190,#152,#153);
#134=AXIS2_PLACEMENT_3D('',#192,#154,#155);
#135=AXIS2_PLACEMENT_3D('',#195,#157,#158);
#136=AXIS2_PLACEMENT_3D('',#196,#159,#160);
#137=AXIS2_PLACEMENT_3D('',#198,#161,#162);
#138=AXIS2_PLACEMENT_3D('',#199,#163,#164);
#139=AXIS2_PLACEMENT_3D('',#201,#165,#166);
#140=AXIS2_PLACEMENT_3D('',#203,#167,#168);
#141=AXIS2_PLACEMENT_3D('',#205,#169,#170);
#142=AXIS2_PLACEMENT_3D('',#206,#171,#172);
#143=AXIS2_PLACEMENT_3D('',#207,#173,#174);
#144=AXIS2_PLACEMENT_3D('',#208,#175,#176);
#145=AXIS2_PLACEMENT_3D('',#211,#178,#179);
#146=AXIS2_PLACEMENT_3D('',#212,#180,#181);
#147=AXIS2_PLACEMENT_3D('',#214,#182,#183);
#148=AXIS2_PLACEMENT_3D('',#215,#184,#185);
#149=AXIS2_PLACEMENT_3D('',#217,#187,#188);
#150=DIRECTION('axis',(0.,0.,1.));
#151=DIRECTION('refdir',(1.,0.,0.));
#152=DIRECTION('center_axis',(0.,1.,0.));
#153=DIRECTION('ref_axis',(1.,0.,0.));
#154=DIRECTION('center_axis',(0.,1.,0.));
#155=DIRECTION('ref_axis',(1.,0.,0.));
#156=DIRECTION('',(0.,1.,0.));
#157=DIRECTION('center_axis',(0.,1.,0.));
#158=DIRECTION('ref_axis',(1.,0.,0.));
#159=DIRECTION('center_axis',(0.,-1.,0.));
#160=DIRECTION('ref_axis',(0.,0.,-1.));
#161=DIRECTION('center_axis',(0.,-1.,0.));
#162=DIRECTION('ref_axis',(1.,0.,0.));
#163=DIRECTION('center_axis',(0.,1.,0.));
#164=DIRECTION('ref_axis',(0.,0.,1.));
#165=DIRECTION('center_axis',(0.,-1.,0.));
#166=DIRECTION('ref_axis',(1.,0.,1.22464679914735E-16));
#167=DIRECTION('center_axis',(-1.,0.,1.22464679914735E-16));
#168=DIRECTION('ref_axis',(-1.22464679914735E-16,0.,-1.));
#169=DIRECTION('center_axis',(0.,1.,0.));
#170=DIRECTION('ref_axis',(1.,0.,1.22464679914735E-16));
#171=DIRECTION('center_axis',(0.,1.,0.));
#172=DIRECTION('ref_axis',(1.,0.,1.22464679914735E-16));
#173=DIRECTION('center_axis',(6.12323399573677E-17,0.,1.));
#174=DIRECTION('ref_axis',(1.,0.,0.));
#175=DIRECTION('center_axis',(0.,1.,0.));
#176=DIRECTION('ref_axis',(-1.,0.,0.));
#177=DIRECTION('',(0.,-1.,0.));
#178=DIRECTION('center_axis',(0.,1.,0.));
#179=DIRECTION('ref_axis',(-1.,0.,0.));
#180=DIRECTION('center_axis',(6.12323399573677E-17,0.,1.));
#181=DIRECTION('ref_axis',(1.,0.,0.));
#182=DIRECTION('center_axis',(0.,-1.,0.));
#183=DIRECTION('ref_axis',(1.,0.,0.));
#184=DIRECTION('center_axis',(0.,1.,0.));
#185=DIRECTION('ref_axis',(1.,0.,0.));
#186=DIRECTION('',(0.,-1.,0.));
#187=DIRECTION('center_axis',(0.,1.,0.));
#188=DIRECTION('ref_axis',(0.,0.,1.));
#189=CARTESIAN_POINT('',(0.,0.,0.));
#190=CARTESIAN_POINT('Origin',(0.,0.,0.));
#191=CARTESIAN_POINT('',(-21.35,0.,2.6146209161796E-15));
#192=CARTESIAN_POINT('Origin',(0.,0.,0.));
#193=CARTESIAN_POINT('',(-21.35,20.,2.6146209161796E-15));
#194=CARTESIAN_POINT('',(-21.35,0.,2.6146209161796E-15));
#195=CARTESIAN_POINT('Origin',(0.,20.,0.));
#196=CARTESIAN_POINT('Origin',(0.,20.,0.));
#197=CARTESIAN_POINT('',(-20.,20.,-2.44929359829471E-15));
#198=CARTESIAN_POINT('Origin',(0.,20.,0.));
#199=CARTESIAN_POINT('Origin',(0.,24.6886596104559,0.));
#200=CARTESIAN_POINT('',(-2.68432682237349E-15,25.1380535384978,-21.9191919191919));
#201=CARTESIAN_POINT('Origin',(0.,25.1380535384978,0.));
#202=CARTESIAN_POINT('',(-2.71871589410712E-15,24.6886596104559,-22.2));
#203=CARTESIAN_POINT('Origin',(-2.65748355414976E-15,24.6886596104559,-21.7));
#204=CARTESIAN_POINT('',(22.2,24.6886596104559,-2.71871589410712E-15));
#205=CARTESIAN_POINT('Origin',(0.,24.6886596104559,0.));
#206=CARTESIAN_POINT('Origin',(0.,24.6886596104559,0.));
#207=CARTESIAN_POINT('Origin',(0.,-19.8013392656961,0.));
#208=CARTESIAN_POINT('Origin',(0.,0.,0.));
#209=CARTESIAN_POINT('',(22.2,0.,-2.71871589410712E-15));
#210=CARTESIAN_POINT('',(22.2,0.,-2.71871589410712E-15));
#211=CARTESIAN_POINT('Origin',(0.,0.,0.));
#212=CARTESIAN_POINT('Origin',(0.,-20.8257569495584,0.));
#213=CARTESIAN_POINT('',(-20.,25.,2.44929359829471E-15));
#214=CARTESIAN_POINT('Origin',(0.,25.,0.));
#215=CARTESIAN_POINT('Origin',(0.,0.,0.));
#216=CARTESIAN_POINT('',(-20.,0.,2.44929359829471E-15));
#217=CARTESIAN_POINT('Origin',(0.,0.,0.));
#218=UNCERTAINTY_MEASURE_WITH_UNIT(LENGTH_MEASURE(0.01),#222,
'DISTANCE_ACCURACY_VALUE',
'Maximum model space distance between geometric entities at asserted c
onnectivities');
#219=UNCERTAINTY_MEASURE_WITH_UNIT(LENGTH_MEASURE(0.01),#222,
'DISTANCE_ACCURACY_VALUE',
'Maximum model space distance between geometric entities at asserted c
onnectivities');
#220=(
GEOMETRIC_REPRESENTATION_CONTEXT(3)
GLOBAL_UNCERTAINTY_ASSIGNED_CONTEXT((#218))
GLOBAL_UNIT_ASSIGNED_CONTEXT((#222,#224,#225))
REPRESENTATION_CONTEXT('','3D')
);
#221=(
GEOMETRIC_REPRESENTATION_CONTEXT(3)
GLOBAL_UNCERTAINTY_ASSIGNED_CONTEXT((#219))
GLOBAL_UNIT_ASSIGNED_CONTEXT((#222,#224,#225))
REPRESENTATION_CONTEXT('','3D')
);
#222=(
LENGTH_UNIT()
NAMED_UNIT(*)
SI_UNIT(.MILLI.,.METRE.)
);
#223=(
LENGTH_UNIT()
NAMED_UNIT(*)
SI_UNIT(.CENTI.,.METRE.)
);
#224=(
NAMED_UNIT(*)
PLANE_ANGLE_UNIT()
SI_UNIT($,.RADIAN.)
);
#225=(
NAMED_UNIT(*)
SI_UNIT($,.STERADIAN.)
SOLID_ANGLE_UNIT()
);
#226=SHAPE_DEFINITION_REPRESENTATION(#227,#228);
#227=PRODUCT_DEFINITION_SHAPE('',$,#230);
#228=SHAPE_REPRESENTATION('',(#132),#220);
#229=PRODUCT_DEFINITION_CONTEXT('part definition',#234,'design');
#230=PRODUCT_DEFINITION('43037','43037',#231,#229);
#231=PRODUCT_DEFINITION_FORMATION('',$,#236);
#232=PRODUCT_RELATED_PRODUCT_CATEGORY('43037','43037',(#236));
#233=APPLICATION_PROTOCOL_DEFINITION('international standard',
'automotive_design',2009,#234);
#234=APPLICATION_CONTEXT(
'Core Data for Automotive Mechanical Design Process');
#235=PRODUCT_CONTEXT('part definition',#234,'mechanical');
#236=PRODUCT('43037','43037',$,(#235));
#237=PRESENTATION_STYLE_ASSIGNMENT((#238));
#238=SURFACE_STYLE_USAGE(.BOTH.,#241);
#239=SURFACE_STYLE_RENDERING_WITH_PROPERTIES($,#245,(#240));
#240=SURFACE_STYLE_TRANSPARENT(0.);
#241=SURFACE_SIDE_STYLE('',(#242,#239));
#242=SURFACE_STYLE_FILL_AREA(#243);
#243=FILL_AREA_STYLE('',(#244));
#244=FILL_AREA_STYLE_COLOUR('',#245);
#245=COLOUR_RGB('',0.956862745098039,0.956862745098039,0.956862745098039);
ENDSEC;
END-ISO-10303-21;
