ISO-10303-21;
HEADER;
/* Generated by software containing ST-Developer
 * from STEP Tools, Inc. (www.steptools.com) 
 */

FILE_DESCRIPTION(
/* description */ (''),
/* implementation_level */ '2;1');

FILE_NAME(
/* name */ 
'C:\\Users\\O.Boryczka\\Desktop\\Korrigierte Zeichnungen\\Zylinderrose
tten\\43121.ipt.step',
/* time_stamp */ '2022-07-18T12:59:09+02:00',
/* author */ ('Abt. Technik'),
/* organization */ (''),
/* preprocessor_version */ 'ST-DEVELOPER v18.1',
/* originating_system */ 'Autodesk Inventor 2022',
/* authorisation */ '');

FILE_SCHEMA (('AUTOMOTIVE_DESIGN { 1 0 10303 214 3 1 1 }'));
ENDSEC;

DATA;
#10=MECHANICAL_DESIGN_GEOMETRIC_PRESENTATION_REPRESENTATION('',(#221,#222,
#223,#224),#431);
#11=SHAPE_REPRESENTATION_RELATIONSHIP('SRR','None',#438,#12);
#12=ADVANCED_BREP_SHAPE_REPRESENTATION('',(#13),#430);
#13=MANIFOLD_SOLID_BREP('Volumenk\X\F6rper1',#238);
#14=CONICAL_SURFACE('',#268,3.25,0.785398163397448);
#15=CONICAL_SURFACE('',#278,3.25,0.785398163397446);
#16=FACE_BOUND('',#43,.T.);
#17=FACE_BOUND('',#47,.T.);
#18=FACE_BOUND('',#48,.T.);
#19=FACE_BOUND('',#49,.T.);
#20=FACE_BOUND('',#58,.T.);
#21=FACE_BOUND('',#59,.T.);
#22=FACE_BOUND('',#60,.T.);
#23=PLANE('',#264);
#24=PLANE('',#272);
#25=PLANE('',#283);
#26=PLANE('',#286);
#27=PLANE('',#289);
#28=FACE_OUTER_BOUND('',#41,.T.);
#29=FACE_OUTER_BOUND('',#42,.T.);
#30=FACE_OUTER_BOUND('',#44,.T.);
#31=FACE_OUTER_BOUND('',#45,.T.);
#32=FACE_OUTER_BOUND('',#46,.T.);
#33=FACE_OUTER_BOUND('',#50,.T.);
#34=FACE_OUTER_BOUND('',#51,.T.);
#35=FACE_OUTER_BOUND('',#52,.T.);
#36=FACE_OUTER_BOUND('',#53,.T.);
#37=FACE_OUTER_BOUND('',#54,.T.);
#38=FACE_OUTER_BOUND('',#55,.T.);
#39=FACE_OUTER_BOUND('',#56,.T.);
#40=FACE_OUTER_BOUND('',#57,.T.);
#41=EDGE_LOOP('',(#155,#156,#157,#158));
#42=EDGE_LOOP('',(#159));
#43=EDGE_LOOP('',(#160));
#44=EDGE_LOOP('',(#161,#162,#163,#164));
#45=EDGE_LOOP('',(#165,#166,#167,#168,#169));
#46=EDGE_LOOP('',(#170,#171,#172,#173));
#47=EDGE_LOOP('',(#174));
#48=EDGE_LOOP('',(#175));
#49=EDGE_LOOP('',(#176));
#50=EDGE_LOOP('',(#177,#178,#179,#180,#181));
#51=EDGE_LOOP('',(#182,#183,#184,#185,#186));
#52=EDGE_LOOP('',(#187,#188,#189,#190,#191));
#53=EDGE_LOOP('',(#192,#193,#194,#195));
#54=EDGE_LOOP('',(#196,#197,#198,#199));
#55=EDGE_LOOP('',(#200,#201,#202,#203));
#56=EDGE_LOOP('',(#204,#205,#206,#207));
#57=EDGE_LOOP('',(#208,#209,#210,#211));
#58=EDGE_LOOP('',(#212));
#59=EDGE_LOOP('',(#213));
#60=EDGE_LOOP('',(#214));
#61=LINE('',#369,#75);
#62=LINE('',#376,#76);
#63=LINE('',#382,#77);
#64=LINE('',#391,#78);
#65=LINE('',#394,#79);
#66=LINE('',#399,#80);
#67=LINE('',#403,#81);
#68=LINE('',#409,#82);
#69=LINE('',#414,#83);
#70=LINE('',#415,#84);
#71=LINE('',#416,#85);
#72=LINE('',#420,#86);
#73=LINE('',#423,#87);
#74=LINE('',#424,#88);
#75=VECTOR('',#296,13.);
#76=VECTOR('',#305,10.5);
#77=VECTOR('',#312,3.25);
#78=VECTOR('',#321,10.);
#79=VECTOR('',#324,10.);
#80=VECTOR('',#329,2.25);
#81=VECTOR('',#334,3.25);
#82=VECTOR('',#341,2.25);
#83=VECTOR('',#346,10.);
#84=VECTOR('',#347,10.);
#85=VECTOR('',#348,10.);
#86=VECTOR('',#353,10.);
#87=VECTOR('',#356,10.);
#88=VECTOR('',#357,10.);
#89=CIRCLE('',#262,13.);
#90=CIRCLE('',#263,13.);
#91=CIRCLE('',#265,10.5);
#92=CIRCLE('',#267,10.5);
#93=CIRCLE('',#269,4.25);
#94=CIRCLE('',#270,2.25);
#95=CIRCLE('',#271,2.25);
#96=CIRCLE('',#273,16.);
#97=CIRCLE('',#274,16.);
#98=CIRCLE('',#275,4.24999999999999);
#99=CIRCLE('',#277,2.25);
#100=CIRCLE('',#279,2.25);
#101=CIRCLE('',#280,2.25);
#102=CIRCLE('',#282,2.25);
#103=CIRCLE('',#285,16.);
#104=CIRCLE('',#288,16.);
#105=VERTEX_POINT('',#366);
#106=VERTEX_POINT('',#368);
#107=VERTEX_POINT('',#372);
#108=VERTEX_POINT('',#375);
#109=VERTEX_POINT('',#379);
#110=VERTEX_POINT('',#381);
#111=VERTEX_POINT('',#383);
#112=VERTEX_POINT('',#387);
#113=VERTEX_POINT('',#388);
#114=VERTEX_POINT('',#390);
#115=VERTEX_POINT('',#392);
#116=VERTEX_POINT('',#395);
#117=VERTEX_POINT('',#398);
#118=VERTEX_POINT('',#402);
#119=VERTEX_POINT('',#404);
#120=VERTEX_POINT('',#408);
#121=VERTEX_POINT('',#412);
#122=VERTEX_POINT('',#413);
#123=VERTEX_POINT('',#418);
#124=VERTEX_POINT('',#422);
#125=EDGE_CURVE('',#105,#105,#89,.T.);
#126=EDGE_CURVE('',#105,#106,#61,.T.);
#127=EDGE_CURVE('',#106,#106,#90,.T.);
#128=EDGE_CURVE('',#107,#107,#91,.T.);
#129=EDGE_CURVE('',#107,#108,#62,.T.);
#130=EDGE_CURVE('',#108,#108,#92,.T.);
#131=EDGE_CURVE('',#109,#109,#93,.T.);
#132=EDGE_CURVE('',#109,#110,#63,.T.);
#133=EDGE_CURVE('',#110,#111,#94,.T.);
#134=EDGE_CURVE('',#111,#110,#95,.T.);
#135=EDGE_CURVE('',#112,#113,#96,.T.);
#136=EDGE_CURVE('',#113,#114,#64,.T.);
#137=EDGE_CURVE('',#114,#115,#97,.T.);
#138=EDGE_CURVE('',#115,#112,#65,.T.);
#139=EDGE_CURVE('',#116,#116,#98,.T.);
#140=EDGE_CURVE('',#111,#117,#66,.T.);
#141=EDGE_CURVE('',#117,#117,#99,.T.);
#142=EDGE_CURVE('',#116,#118,#67,.T.);
#143=EDGE_CURVE('',#118,#119,#100,.T.);
#144=EDGE_CURVE('',#119,#118,#101,.T.);
#145=EDGE_CURVE('',#119,#120,#68,.T.);
#146=EDGE_CURVE('',#120,#120,#102,.T.);
#147=EDGE_CURVE('',#121,#122,#69,.T.);
#148=EDGE_CURVE('',#122,#112,#70,.T.);
#149=EDGE_CURVE('',#121,#115,#71,.T.);
#150=EDGE_CURVE('',#123,#121,#103,.T.);
#151=EDGE_CURVE('',#123,#114,#72,.T.);
#152=EDGE_CURVE('',#124,#123,#73,.T.);
#153=EDGE_CURVE('',#124,#113,#74,.T.);
#154=EDGE_CURVE('',#122,#124,#104,.T.);
#155=ORIENTED_EDGE('',*,*,#125,.F.);
#156=ORIENTED_EDGE('',*,*,#126,.T.);
#157=ORIENTED_EDGE('',*,*,#127,.F.);
#158=ORIENTED_EDGE('',*,*,#126,.F.);
#159=ORIENTED_EDGE('',*,*,#125,.T.);
#160=ORIENTED_EDGE('',*,*,#128,.T.);
#161=ORIENTED_EDGE('',*,*,#128,.F.);
#162=ORIENTED_EDGE('',*,*,#129,.T.);
#163=ORIENTED_EDGE('',*,*,#130,.F.);
#164=ORIENTED_EDGE('',*,*,#129,.F.);
#165=ORIENTED_EDGE('',*,*,#131,.T.);
#166=ORIENTED_EDGE('',*,*,#132,.T.);
#167=ORIENTED_EDGE('',*,*,#133,.T.);
#168=ORIENTED_EDGE('',*,*,#134,.T.);
#169=ORIENTED_EDGE('',*,*,#132,.F.);
#170=ORIENTED_EDGE('',*,*,#135,.T.);
#171=ORIENTED_EDGE('',*,*,#136,.T.);
#172=ORIENTED_EDGE('',*,*,#137,.T.);
#173=ORIENTED_EDGE('',*,*,#138,.T.);
#174=ORIENTED_EDGE('',*,*,#127,.T.);
#175=ORIENTED_EDGE('',*,*,#139,.F.);
#176=ORIENTED_EDGE('',*,*,#131,.F.);
#177=ORIENTED_EDGE('',*,*,#133,.F.);
#178=ORIENTED_EDGE('',*,*,#134,.F.);
#179=ORIENTED_EDGE('',*,*,#140,.T.);
#180=ORIENTED_EDGE('',*,*,#141,.F.);
#181=ORIENTED_EDGE('',*,*,#140,.F.);
#182=ORIENTED_EDGE('',*,*,#139,.T.);
#183=ORIENTED_EDGE('',*,*,#142,.T.);
#184=ORIENTED_EDGE('',*,*,#143,.T.);
#185=ORIENTED_EDGE('',*,*,#144,.T.);
#186=ORIENTED_EDGE('',*,*,#142,.F.);
#187=ORIENTED_EDGE('',*,*,#143,.F.);
#188=ORIENTED_EDGE('',*,*,#144,.F.);
#189=ORIENTED_EDGE('',*,*,#145,.T.);
#190=ORIENTED_EDGE('',*,*,#146,.F.);
#191=ORIENTED_EDGE('',*,*,#145,.F.);
#192=ORIENTED_EDGE('',*,*,#147,.T.);
#193=ORIENTED_EDGE('',*,*,#148,.T.);
#194=ORIENTED_EDGE('',*,*,#138,.F.);
#195=ORIENTED_EDGE('',*,*,#149,.F.);
#196=ORIENTED_EDGE('',*,*,#150,.T.);
#197=ORIENTED_EDGE('',*,*,#149,.T.);
#198=ORIENTED_EDGE('',*,*,#137,.F.);
#199=ORIENTED_EDGE('',*,*,#151,.F.);
#200=ORIENTED_EDGE('',*,*,#152,.T.);
#201=ORIENTED_EDGE('',*,*,#151,.T.);
#202=ORIENTED_EDGE('',*,*,#136,.F.);
#203=ORIENTED_EDGE('',*,*,#153,.F.);
#204=ORIENTED_EDGE('',*,*,#154,.T.);
#205=ORIENTED_EDGE('',*,*,#153,.T.);
#206=ORIENTED_EDGE('',*,*,#135,.F.);
#207=ORIENTED_EDGE('',*,*,#148,.F.);
#208=ORIENTED_EDGE('',*,*,#154,.F.);
#209=ORIENTED_EDGE('',*,*,#147,.F.);
#210=ORIENTED_EDGE('',*,*,#150,.F.);
#211=ORIENTED_EDGE('',*,*,#152,.F.);
#212=ORIENTED_EDGE('',*,*,#130,.T.);
#213=ORIENTED_EDGE('',*,*,#141,.T.);
#214=ORIENTED_EDGE('',*,*,#146,.T.);
#215=CYLINDRICAL_SURFACE('',#261,13.);
#216=CYLINDRICAL_SURFACE('',#266,10.5);
#217=CYLINDRICAL_SURFACE('',#276,2.25);
#218=CYLINDRICAL_SURFACE('',#281,2.25);
#219=CYLINDRICAL_SURFACE('',#284,16.);
#220=CYLINDRICAL_SURFACE('',#287,16.);
#221=STYLED_ITEM('',(#448),#225);
#222=STYLED_ITEM('',(#448),#226);
#223=STYLED_ITEM('',(#448),#227);
#224=STYLED_ITEM('',(#447),#13);
#225=ADVANCED_FACE('',(#28),#215,.T.);
#226=ADVANCED_FACE('',(#29,#16),#23,.T.);
#227=ADVANCED_FACE('',(#30),#216,.F.);
#228=ADVANCED_FACE('',(#31),#14,.F.);
#229=ADVANCED_FACE('',(#32,#17,#18,#19),#24,.T.);
#230=ADVANCED_FACE('',(#33),#217,.F.);
#231=ADVANCED_FACE('',(#34),#15,.F.);
#232=ADVANCED_FACE('',(#35),#218,.F.);
#233=ADVANCED_FACE('',(#36),#25,.T.);
#234=ADVANCED_FACE('',(#37),#219,.T.);
#235=ADVANCED_FACE('',(#38),#26,.T.);
#236=ADVANCED_FACE('',(#39),#220,.T.);
#237=ADVANCED_FACE('',(#40,#20,#21,#22),#27,.F.);
#238=CLOSED_SHELL('',(#225,#226,#227,#228,#229,#230,#231,#232,#233,#234,
#235,#236,#237));
#239=DERIVED_UNIT_ELEMENT(#242,1.);
#240=DERIVED_UNIT_ELEMENT(#433,-3.);
#241=DIMENSIONAL_EXPONENTS(1.,0.,0.,0.,0.,0.,0.);
#242=(
CONVERSION_BASED_UNIT('gram',#244)
MASS_UNIT()
NAMED_UNIT(#241)
);
#243=(
MASS_UNIT()
NAMED_UNIT(*)
SI_UNIT(.KILO.,.GRAM.)
);
#244=MASS_MEASURE_WITH_UNIT(MASS_MEASURE(0.001),#243);
#245=DERIVED_UNIT((#239,#240));
#246=MEASURE_REPRESENTATION_ITEM('density measure',
POSITIVE_RATIO_MEASURE(8.),#245);
#247=PROPERTY_DEFINITION_REPRESENTATION(#252,#249);
#248=PROPERTY_DEFINITION_REPRESENTATION(#253,#250);
#249=REPRESENTATION('material name',(#251),#430);
#250=REPRESENTATION('density',(#246),#430);
#251=DESCRIPTIVE_REPRESENTATION_ITEM('Edelstahl AISI 304',
'Edelstahl AISI 304');
#252=PROPERTY_DEFINITION('material property','material name',#440);
#253=PROPERTY_DEFINITION('material property','density of part',#440);
#254=DATE_TIME_ROLE('creation_date');
#255=APPLIED_DATE_AND_TIME_ASSIGNMENT(#256,#254,(#440));
#256=DATE_AND_TIME(#257,#258);
#257=CALENDAR_DATE(2021,22,10);
#258=LOCAL_TIME(0,0,0.,#259);
#259=COORDINATED_UNIVERSAL_TIME_OFFSET(0,0,.BEHIND.);
#260=AXIS2_PLACEMENT_3D('placement',#364,#290,#291);
#261=AXIS2_PLACEMENT_3D('',#365,#292,#293);
#262=AXIS2_PLACEMENT_3D('',#367,#294,#295);
#263=AXIS2_PLACEMENT_3D('',#370,#297,#298);
#264=AXIS2_PLACEMENT_3D('',#371,#299,#300);
#265=AXIS2_PLACEMENT_3D('',#373,#301,#302);
#266=AXIS2_PLACEMENT_3D('',#374,#303,#304);
#267=AXIS2_PLACEMENT_3D('',#377,#306,#307);
#268=AXIS2_PLACEMENT_3D('',#378,#308,#309);
#269=AXIS2_PLACEMENT_3D('',#380,#310,#311);
#270=AXIS2_PLACEMENT_3D('',#384,#313,#314);
#271=AXIS2_PLACEMENT_3D('',#385,#315,#316);
#272=AXIS2_PLACEMENT_3D('',#386,#317,#318);
#273=AXIS2_PLACEMENT_3D('',#389,#319,#320);
#274=AXIS2_PLACEMENT_3D('',#393,#322,#323);
#275=AXIS2_PLACEMENT_3D('',#396,#325,#326);
#276=AXIS2_PLACEMENT_3D('',#397,#327,#328);
#277=AXIS2_PLACEMENT_3D('',#400,#330,#331);
#278=AXIS2_PLACEMENT_3D('',#401,#332,#333);
#279=AXIS2_PLACEMENT_3D('',#405,#335,#336);
#280=AXIS2_PLACEMENT_3D('',#406,#337,#338);
#281=AXIS2_PLACEMENT_3D('',#407,#339,#340);
#282=AXIS2_PLACEMENT_3D('',#410,#342,#343);
#283=AXIS2_PLACEMENT_3D('',#411,#344,#345);
#284=AXIS2_PLACEMENT_3D('',#417,#349,#350);
#285=AXIS2_PLACEMENT_3D('',#419,#351,#352);
#286=AXIS2_PLACEMENT_3D('',#421,#354,#355);
#287=AXIS2_PLACEMENT_3D('',#425,#358,#359);
#288=AXIS2_PLACEMENT_3D('',#426,#360,#361);
#289=AXIS2_PLACEMENT_3D('',#427,#362,#363);
#290=DIRECTION('axis',(0.,0.,1.));
#291=DIRECTION('refdir',(1.,0.,0.));
#292=DIRECTION('center_axis',(0.,1.,0.));
#293=DIRECTION('ref_axis',(1.,0.,0.));
#294=DIRECTION('center_axis',(0.,1.,0.));
#295=DIRECTION('ref_axis',(1.,0.,0.));
#296=DIRECTION('',(0.,-1.,0.));
#297=DIRECTION('center_axis',(0.,-1.,0.));
#298=DIRECTION('ref_axis',(1.,0.,0.));
#299=DIRECTION('center_axis',(0.,1.,0.));
#300=DIRECTION('ref_axis',(0.,0.,1.));
#301=DIRECTION('center_axis',(0.,-1.,0.));
#302=DIRECTION('ref_axis',(-1.,0.,0.));
#303=DIRECTION('center_axis',(0.,-1.,0.));
#304=DIRECTION('ref_axis',(1.,0.,0.));
#305=DIRECTION('',(0.,-1.,0.));
#306=DIRECTION('center_axis',(0.,1.,0.));
#307=DIRECTION('ref_axis',(1.,0.,0.));
#308=DIRECTION('center_axis',(0.,1.,0.));
#309=DIRECTION('ref_axis',(-1.,0.,0.));
#310=DIRECTION('center_axis',(0.,1.,0.));
#311=DIRECTION('ref_axis',(-1.,0.,0.));
#312=DIRECTION('',(-0.707106781186547,-0.707106781186548,8.65956056235493E-17));
#313=DIRECTION('center_axis',(0.,-1.,0.));
#314=DIRECTION('ref_axis',(-1.,0.,0.));
#315=DIRECTION('center_axis',(0.,-1.,0.));
#316=DIRECTION('ref_axis',(-1.,0.,0.));
#317=DIRECTION('center_axis',(0.,1.,0.));
#318=DIRECTION('ref_axis',(0.,0.,1.));
#319=DIRECTION('center_axis',(0.,1.,0.));
#320=DIRECTION('ref_axis',(0.,0.,-1.));
#321=DIRECTION('',(1.,0.,1.67580833905684E-16));
#322=DIRECTION('center_axis',(0.,1.,0.));
#323=DIRECTION('ref_axis',(0.,0.,1.));
#324=DIRECTION('',(-1.,0.,0.));
#325=DIRECTION('center_axis',(0.,1.,0.));
#326=DIRECTION('ref_axis',(-1.,0.,0.));
#327=DIRECTION('center_axis',(0.,-1.,0.));
#328=DIRECTION('ref_axis',(1.,0.,0.));
#329=DIRECTION('',(0.,-1.,0.));
#330=DIRECTION('center_axis',(0.,1.,0.));
#331=DIRECTION('ref_axis',(1.,0.,0.));
#332=DIRECTION('center_axis',(0.,1.,0.));
#333=DIRECTION('ref_axis',(-1.,0.,0.));
#334=DIRECTION('',(-0.707106781186546,-0.707106781186549,8.65956056235492E-17));
#335=DIRECTION('center_axis',(0.,-1.,0.));
#336=DIRECTION('ref_axis',(-1.,0.,0.));
#337=DIRECTION('center_axis',(0.,-1.,0.));
#338=DIRECTION('ref_axis',(-1.,0.,0.));
#339=DIRECTION('center_axis',(0.,-1.,0.));
#340=DIRECTION('ref_axis',(1.,0.,0.));
#341=DIRECTION('',(0.,-1.,0.));
#342=DIRECTION('center_axis',(0.,1.,0.));
#343=DIRECTION('ref_axis',(1.,0.,0.));
#344=DIRECTION('center_axis',(0.,0.,-1.));
#345=DIRECTION('ref_axis',(-1.,0.,0.));
#346=DIRECTION('',(-1.,0.,0.));
#347=DIRECTION('',(0.,1.,0.));
#348=DIRECTION('',(0.,1.,0.));
#349=DIRECTION('center_axis',(0.,1.,0.));
#350=DIRECTION('ref_axis',(0.,0.,1.));
#351=DIRECTION('center_axis',(0.,1.,0.));
#352=DIRECTION('ref_axis',(0.,0.,1.));
#353=DIRECTION('',(0.,1.,0.));
#354=DIRECTION('center_axis',(-1.67580833905684E-16,0.,1.));
#355=DIRECTION('ref_axis',(1.,0.,1.67580833905684E-16));
#356=DIRECTION('',(1.,0.,1.67580833905684E-16));
#357=DIRECTION('',(0.,1.,0.));
#358=DIRECTION('center_axis',(0.,1.,0.));
#359=DIRECTION('ref_axis',(0.,0.,-1.));
#360=DIRECTION('center_axis',(0.,1.,0.));
#361=DIRECTION('ref_axis',(0.,0.,-1.));
#362=DIRECTION('center_axis',(0.,1.,0.));
#363=DIRECTION('ref_axis',(0.,0.,1.));
#364=CARTESIAN_POINT('',(0.,0.,0.));
#365=CARTESIAN_POINT('Origin',(-30.,6.,0.));
#366=CARTESIAN_POINT('',(-43.,7.,1.59204083889156E-15));
#367=CARTESIAN_POINT('Origin',(-30.,7.,0.));
#368=CARTESIAN_POINT('',(-43.,6.,1.59204083889156E-15));
#369=CARTESIAN_POINT('',(-43.,6.,1.59204083889156E-15));
#370=CARTESIAN_POINT('Origin',(-30.,6.,0.));
#371=CARTESIAN_POINT('Origin',(-30.,7.,0.));
#372=CARTESIAN_POINT('',(-40.5,7.,-1.28587913910472E-15));
#373=CARTESIAN_POINT('Origin',(-30.,7.,0.));
#374=CARTESIAN_POINT('Origin',(-30.,6.,0.));
#375=CARTESIAN_POINT('',(-40.5,0.,-1.28587913910472E-15));
#376=CARTESIAN_POINT('',(-40.5,6.,-1.28587913910472E-15));
#377=CARTESIAN_POINT('Origin',(-30.,0.,0.));
#378=CARTESIAN_POINT('Origin',(-9.,5.,1.46957615897682E-15));
#379=CARTESIAN_POINT('',(-4.75,6.,9.49101269339197E-16));
#380=CARTESIAN_POINT('Origin',(-9.,6.,1.46957615897682E-15));
#381=CARTESIAN_POINT('',(-6.75,4.,1.74512168878498E-15));
#382=CARTESIAN_POINT('',(-5.75,5.,1.07156594925393E-15));
#383=CARTESIAN_POINT('',(-11.25,4.,1.19403062916867E-15));
#384=CARTESIAN_POINT('Origin',(-9.,4.,1.46957615897682E-15));
#385=CARTESIAN_POINT('Origin',(-9.,4.,1.46957615897682E-15));
#386=CARTESIAN_POINT('Origin',(-42.5,6.,0.));
#387=CARTESIAN_POINT('',(-69.,6.,-16.));
#388=CARTESIAN_POINT('',(-69.,6.,16.));
#389=CARTESIAN_POINT('Origin',(-69.,6.,0.));
#390=CARTESIAN_POINT('',(-16.,6.,16.));
#391=CARTESIAN_POINT('',(-69.,6.,16.));
#392=CARTESIAN_POINT('',(-16.,6.,-16.));
#393=CARTESIAN_POINT('Origin',(-16.,6.,0.));
#394=CARTESIAN_POINT('',(-16.,6.,-16.));
#395=CARTESIAN_POINT('',(-71.75,6.,-5.20474889637624E-16));
#396=CARTESIAN_POINT('Origin',(-76.,6.,0.));
#397=CARTESIAN_POINT('Origin',(-9.,6.,1.46957615897682E-15));
#398=CARTESIAN_POINT('',(-11.25,0.,1.19403062916867E-15));
#399=CARTESIAN_POINT('',(-11.25,6.,1.19403062916867E-15));
#400=CARTESIAN_POINT('Origin',(-9.,0.,1.46957615897682E-15));
#401=CARTESIAN_POINT('Origin',(-76.,5.,0.));
#402=CARTESIAN_POINT('',(-73.75,4.,2.75545529808154E-16));
#403=CARTESIAN_POINT('',(-72.75,5.,-3.98010209722889E-16));
#404=CARTESIAN_POINT('',(-78.25,4.,-2.75545529808154E-16));
#405=CARTESIAN_POINT('Origin',(-76.,4.,0.));
#406=CARTESIAN_POINT('Origin',(-76.,4.,0.));
#407=CARTESIAN_POINT('Origin',(-76.,6.,0.));
#408=CARTESIAN_POINT('',(-78.25,0.,-2.75545529808154E-16));
#409=CARTESIAN_POINT('',(-78.25,6.,-2.75545529808154E-16));
#410=CARTESIAN_POINT('Origin',(-76.,0.,0.));
#411=CARTESIAN_POINT('Origin',(-16.,0.,-16.));
#412=CARTESIAN_POINT('',(-16.,0.,-16.));
#413=CARTESIAN_POINT('',(-69.,0.,-16.));
#414=CARTESIAN_POINT('',(-16.,0.,-16.));
#415=CARTESIAN_POINT('',(-69.,0.,-16.));
#416=CARTESIAN_POINT('',(-16.,0.,-16.));
#417=CARTESIAN_POINT('Origin',(-16.,0.,0.));
#418=CARTESIAN_POINT('',(-16.,0.,16.));
#419=CARTESIAN_POINT('Origin',(-16.,0.,0.));
#420=CARTESIAN_POINT('',(-16.,0.,16.));
#421=CARTESIAN_POINT('Origin',(-69.,0.,16.));
#422=CARTESIAN_POINT('',(-69.,0.,16.));
#423=CARTESIAN_POINT('',(-69.,0.,16.));
#424=CARTESIAN_POINT('',(-69.,0.,16.));
#425=CARTESIAN_POINT('Origin',(-69.,0.,0.));
#426=CARTESIAN_POINT('Origin',(-69.,0.,0.));
#427=CARTESIAN_POINT('Origin',(-42.5,0.,0.));
#428=UNCERTAINTY_MEASURE_WITH_UNIT(LENGTH_MEASURE(0.01),#432,
'DISTANCE_ACCURACY_VALUE',
'Maximum model space distance between geometric entities at asserted c
onnectivities');
#429=UNCERTAINTY_MEASURE_WITH_UNIT(LENGTH_MEASURE(0.01),#432,
'DISTANCE_ACCURACY_VALUE',
'Maximum model space distance between geometric entities at asserted c
onnectivities');
#430=(
GEOMETRIC_REPRESENTATION_CONTEXT(3)
GLOBAL_UNCERTAINTY_ASSIGNED_CONTEXT((#428))
GLOBAL_UNIT_ASSIGNED_CONTEXT((#432,#434,#435))
REPRESENTATION_CONTEXT('','3D')
);
#431=(
GEOMETRIC_REPRESENTATION_CONTEXT(3)
GLOBAL_UNCERTAINTY_ASSIGNED_CONTEXT((#429))
GLOBAL_UNIT_ASSIGNED_CONTEXT((#432,#434,#435))
REPRESENTATION_CONTEXT('','3D')
);
#432=(
LENGTH_UNIT()
NAMED_UNIT(*)
SI_UNIT(.MILLI.,.METRE.)
);
#433=(
LENGTH_UNIT()
NAMED_UNIT(*)
SI_UNIT(.CENTI.,.METRE.)
);
#434=(
NAMED_UNIT(*)
PLANE_ANGLE_UNIT()
SI_UNIT($,.RADIAN.)
);
#435=(
NAMED_UNIT(*)
SI_UNIT($,.STERADIAN.)
SOLID_ANGLE_UNIT()
);
#436=SHAPE_DEFINITION_REPRESENTATION(#437,#438);
#437=PRODUCT_DEFINITION_SHAPE('',$,#440);
#438=SHAPE_REPRESENTATION('',(#260),#430);
#439=PRODUCT_DEFINITION_CONTEXT('part definition',#444,'design');
#440=PRODUCT_DEFINITION('43121','43121',#441,#439);
#441=PRODUCT_DEFINITION_FORMATION('',$,#446);
#442=PRODUCT_RELATED_PRODUCT_CATEGORY('43121','43121',(#446));
#443=APPLICATION_PROTOCOL_DEFINITION('international standard',
'automotive_design',2009,#444);
#444=APPLICATION_CONTEXT(
'Core Data for Automotive Mechanical Design Process');
#445=PRODUCT_CONTEXT('part definition',#444,'mechanical');
#446=PRODUCT('43121','43121',$,(#445));
#447=PRESENTATION_STYLE_ASSIGNMENT((#449));
#448=PRESENTATION_STYLE_ASSIGNMENT((#450));
#449=SURFACE_STYLE_USAGE(.BOTH.,#455);
#450=SURFACE_STYLE_USAGE(.BOTH.,#456);
#451=SURFACE_STYLE_RENDERING_WITH_PROPERTIES($,#463,(#453));
#452=SURFACE_STYLE_RENDERING_WITH_PROPERTIES($,#464,(#454));
#453=SURFACE_STYLE_TRANSPARENT(0.);
#454=SURFACE_STYLE_TRANSPARENT(0.);
#455=SURFACE_SIDE_STYLE('',(#457,#451));
#456=SURFACE_SIDE_STYLE('',(#458,#452));
#457=SURFACE_STYLE_FILL_AREA(#459);
#458=SURFACE_STYLE_FILL_AREA(#460);
#459=FILL_AREA_STYLE('',(#461));
#460=FILL_AREA_STYLE('',(#462));
#461=FILL_AREA_STYLE_COLOUR('',#463);
#462=FILL_AREA_STYLE_COLOUR('',#464);
#463=COLOUR_RGB('',0.956862745098039,0.956862745098039,0.956862745098039);
#464=COLOUR_RGB('',0.901960784313726,0.913725490196078,0.925490196078431);
ENDSEC;
END-ISO-10303-21;
