ISO-10303-21;
HEADER;
/* Generated by software containing ST-Developer
 * from STEP Tools, Inc. (www.steptools.com) 
 */

FILE_DESCRIPTION(
/* description */ (''),
/* implementation_level */ '2;1');

FILE_NAME(
/* name */ 
'C:\\Users\\O.Boryczka\\Desktop\\Korrigierte Zeichnungen\\Zylinderrose
tten\\43128.ipt.step',
/* time_stamp */ '2022-07-18T12:59:10+02:00',
/* author */ ('Abt. Technik'),
/* organization */ (''),
/* preprocessor_version */ 'ST-DEVELOPER v18.1',
/* originating_system */ 'Autodesk Inventor 2022',
/* authorisation */ '');

FILE_SCHEMA (('AUTOMOTIVE_DESIGN { 1 0 10303 214 3 1 1 }'));
ENDSEC;

DATA;
#10=MECHANICAL_DESIGN_GEOMETRIC_PRESENTATION_REPRESENTATION('',(#13),#484);
#11=SHAPE_REPRESENTATION_RELATIONSHIP('SRR','None',#491,#12);
#12=ADVANCED_BREP_SHAPE_REPRESENTATION('',(#14),#483);
#13=STYLED_ITEM('',(#500),#14);
#14=MANIFOLD_SOLID_BREP('Volumenk\X\F6rper1',#271);
#15=CYLINDRICAL_SURFACE('',#304,2.25);
#16=CYLINDRICAL_SURFACE('',#309,2.25);
#17=CYLINDRICAL_SURFACE('',#311,5.);
#18=CYLINDRICAL_SURFACE('',#314,8.75);
#19=CYLINDRICAL_SURFACE('',#318,16.);
#20=CYLINDRICAL_SURFACE('',#321,16.);
#21=FACE_BOUND('',#49,.T.);
#22=FACE_BOUND('',#50,.T.);
#23=FACE_BOUND('',#51,.T.);
#24=FACE_BOUND('',#64,.T.);
#25=FACE_BOUND('',#65,.T.);
#26=FACE_BOUND('',#66,.T.);
#27=PLANE('',#298);
#28=PLANE('',#313);
#29=PLANE('',#316);
#30=PLANE('',#317);
#31=PLANE('',#320);
#32=PLANE('',#323);
#33=FACE_OUTER_BOUND('',#47,.T.);
#34=FACE_OUTER_BOUND('',#48,.T.);
#35=FACE_OUTER_BOUND('',#52,.T.);
#36=FACE_OUTER_BOUND('',#53,.T.);
#37=FACE_OUTER_BOUND('',#54,.T.);
#38=FACE_OUTER_BOUND('',#55,.T.);
#39=FACE_OUTER_BOUND('',#56,.T.);
#40=FACE_OUTER_BOUND('',#57,.T.);
#41=FACE_OUTER_BOUND('',#58,.T.);
#42=FACE_OUTER_BOUND('',#59,.T.);
#43=FACE_OUTER_BOUND('',#60,.T.);
#44=FACE_OUTER_BOUND('',#61,.T.);
#45=FACE_OUTER_BOUND('',#62,.T.);
#46=FACE_OUTER_BOUND('',#63,.T.);
#47=EDGE_LOOP('',(#183,#184,#185,#186,#187));
#48=EDGE_LOOP('',(#188,#189,#190,#191));
#49=EDGE_LOOP('',(#192));
#50=EDGE_LOOP('',(#193,#194,#195,#196));
#51=EDGE_LOOP('',(#197));
#52=EDGE_LOOP('',(#198,#199,#200,#201,#202));
#53=EDGE_LOOP('',(#203,#204,#205,#206,#207));
#54=EDGE_LOOP('',(#208,#209,#210,#211,#212));
#55=EDGE_LOOP('',(#213,#214,#215,#216));
#56=EDGE_LOOP('',(#217,#218,#219,#220));
#57=EDGE_LOOP('',(#221,#222,#223,#224));
#58=EDGE_LOOP('',(#225,#226,#227,#228));
#59=EDGE_LOOP('',(#229,#230,#231,#232));
#60=EDGE_LOOP('',(#233,#234,#235,#236));
#61=EDGE_LOOP('',(#237,#238,#239,#240));
#62=EDGE_LOOP('',(#241,#242,#243,#244));
#63=EDGE_LOOP('',(#245,#246,#247,#248));
#64=EDGE_LOOP('',(#249));
#65=EDGE_LOOP('',(#250));
#66=EDGE_LOOP('',(#251,#252,#253,#254));
#67=LINE('',#411,#87);
#68=LINE('',#420,#88);
#69=LINE('',#423,#89);
#70=LINE('',#430,#90);
#71=LINE('',#433,#91);
#72=LINE('',#436,#92);
#73=LINE('',#440,#93);
#74=LINE('',#446,#94);
#75=LINE('',#450,#95);
#76=LINE('',#453,#96);
#77=LINE('',#456,#97);
#78=LINE('',#457,#98);
#79=LINE('',#460,#99);
#80=LINE('',#463,#100);
#81=LINE('',#467,#101);
#82=LINE('',#468,#102);
#83=LINE('',#469,#103);
#84=LINE('',#473,#104);
#85=LINE('',#476,#105);
#86=LINE('',#477,#106);
#87=VECTOR('',#330,3.25);
#88=VECTOR('',#339,10.);
#89=VECTOR('',#342,10.);
#90=VECTOR('',#347,10.);
#91=VECTOR('',#350,10.);
#92=VECTOR('',#353,2.25);
#93=VECTOR('',#358,3.25);
#94=VECTOR('',#365,2.25);
#95=VECTOR('',#370,10.);
#96=VECTOR('',#373,10.);
#97=VECTOR('',#376,10.);
#98=VECTOR('',#377,10.);
#99=VECTOR('',#380,10.);
#100=VECTOR('',#385,10.);
#101=VECTOR('',#388,10.);
#102=VECTOR('',#389,10.);
#103=VECTOR('',#390,10.);
#104=VECTOR('',#395,10.);
#105=VECTOR('',#398,10.);
#106=VECTOR('',#399,10.);
#107=CIRCLE('',#295,4.24999999999999);
#108=CIRCLE('',#296,2.25);
#109=CIRCLE('',#297,2.25);
#110=CIRCLE('',#299,16.);
#111=CIRCLE('',#300,16.);
#112=CIRCLE('',#301,4.24999999999999);
#113=CIRCLE('',#302,5.);
#114=CIRCLE('',#303,8.75);
#115=CIRCLE('',#305,2.25);
#116=CIRCLE('',#307,2.25);
#117=CIRCLE('',#308,2.25);
#118=CIRCLE('',#310,2.25);
#119=CIRCLE('',#312,5.);
#120=CIRCLE('',#315,8.75);
#121=CIRCLE('',#319,16.);
#122=CIRCLE('',#322,16.);
#123=VERTEX_POINT('',#408);
#124=VERTEX_POINT('',#410);
#125=VERTEX_POINT('',#412);
#126=VERTEX_POINT('',#416);
#127=VERTEX_POINT('',#417);
#128=VERTEX_POINT('',#419);
#129=VERTEX_POINT('',#421);
#130=VERTEX_POINT('',#424);
#131=VERTEX_POINT('',#426);
#132=VERTEX_POINT('',#427);
#133=VERTEX_POINT('',#429);
#134=VERTEX_POINT('',#431);
#135=VERTEX_POINT('',#435);
#136=VERTEX_POINT('',#439);
#137=VERTEX_POINT('',#441);
#138=VERTEX_POINT('',#445);
#139=VERTEX_POINT('',#449);
#140=VERTEX_POINT('',#451);
#141=VERTEX_POINT('',#455);
#142=VERTEX_POINT('',#459);
#143=VERTEX_POINT('',#465);
#144=VERTEX_POINT('',#466);
#145=VERTEX_POINT('',#471);
#146=VERTEX_POINT('',#475);
#147=EDGE_CURVE('',#123,#123,#107,.T.);
#148=EDGE_CURVE('',#123,#124,#67,.T.);
#149=EDGE_CURVE('',#124,#125,#108,.T.);
#150=EDGE_CURVE('',#125,#124,#109,.T.);
#151=EDGE_CURVE('',#126,#127,#110,.T.);
#152=EDGE_CURVE('',#127,#128,#68,.T.);
#153=EDGE_CURVE('',#128,#129,#111,.T.);
#154=EDGE_CURVE('',#129,#126,#69,.T.);
#155=EDGE_CURVE('',#130,#130,#112,.T.);
#156=EDGE_CURVE('',#131,#132,#113,.T.);
#157=EDGE_CURVE('',#132,#133,#70,.T.);
#158=EDGE_CURVE('',#133,#134,#114,.T.);
#159=EDGE_CURVE('',#134,#131,#71,.T.);
#160=EDGE_CURVE('',#125,#135,#72,.T.);
#161=EDGE_CURVE('',#135,#135,#115,.T.);
#162=EDGE_CURVE('',#130,#136,#73,.T.);
#163=EDGE_CURVE('',#136,#137,#116,.T.);
#164=EDGE_CURVE('',#137,#136,#117,.T.);
#165=EDGE_CURVE('',#137,#138,#74,.T.);
#166=EDGE_CURVE('',#138,#138,#118,.T.);
#167=EDGE_CURVE('',#131,#139,#75,.T.);
#168=EDGE_CURVE('',#140,#139,#119,.T.);
#169=EDGE_CURVE('',#132,#140,#76,.T.);
#170=EDGE_CURVE('',#134,#141,#77,.T.);
#171=EDGE_CURVE('',#139,#141,#78,.T.);
#172=EDGE_CURVE('',#133,#142,#79,.T.);
#173=EDGE_CURVE('',#141,#142,#120,.T.);
#174=EDGE_CURVE('',#142,#140,#80,.T.);
#175=EDGE_CURVE('',#143,#144,#81,.T.);
#176=EDGE_CURVE('',#144,#126,#82,.T.);
#177=EDGE_CURVE('',#143,#129,#83,.T.);
#178=EDGE_CURVE('',#145,#143,#121,.T.);
#179=EDGE_CURVE('',#145,#128,#84,.T.);
#180=EDGE_CURVE('',#146,#145,#85,.T.);
#181=EDGE_CURVE('',#146,#127,#86,.T.);
#182=EDGE_CURVE('',#144,#146,#122,.T.);
#183=ORIENTED_EDGE('',*,*,#147,.T.);
#184=ORIENTED_EDGE('',*,*,#148,.T.);
#185=ORIENTED_EDGE('',*,*,#149,.T.);
#186=ORIENTED_EDGE('',*,*,#150,.T.);
#187=ORIENTED_EDGE('',*,*,#148,.F.);
#188=ORIENTED_EDGE('',*,*,#151,.T.);
#189=ORIENTED_EDGE('',*,*,#152,.T.);
#190=ORIENTED_EDGE('',*,*,#153,.T.);
#191=ORIENTED_EDGE('',*,*,#154,.T.);
#192=ORIENTED_EDGE('',*,*,#155,.F.);
#193=ORIENTED_EDGE('',*,*,#156,.T.);
#194=ORIENTED_EDGE('',*,*,#157,.T.);
#195=ORIENTED_EDGE('',*,*,#158,.T.);
#196=ORIENTED_EDGE('',*,*,#159,.T.);
#197=ORIENTED_EDGE('',*,*,#147,.F.);
#198=ORIENTED_EDGE('',*,*,#149,.F.);
#199=ORIENTED_EDGE('',*,*,#150,.F.);
#200=ORIENTED_EDGE('',*,*,#160,.T.);
#201=ORIENTED_EDGE('',*,*,#161,.F.);
#202=ORIENTED_EDGE('',*,*,#160,.F.);
#203=ORIENTED_EDGE('',*,*,#155,.T.);
#204=ORIENTED_EDGE('',*,*,#162,.T.);
#205=ORIENTED_EDGE('',*,*,#163,.T.);
#206=ORIENTED_EDGE('',*,*,#164,.T.);
#207=ORIENTED_EDGE('',*,*,#162,.F.);
#208=ORIENTED_EDGE('',*,*,#163,.F.);
#209=ORIENTED_EDGE('',*,*,#164,.F.);
#210=ORIENTED_EDGE('',*,*,#165,.T.);
#211=ORIENTED_EDGE('',*,*,#166,.F.);
#212=ORIENTED_EDGE('',*,*,#165,.F.);
#213=ORIENTED_EDGE('',*,*,#156,.F.);
#214=ORIENTED_EDGE('',*,*,#167,.T.);
#215=ORIENTED_EDGE('',*,*,#168,.F.);
#216=ORIENTED_EDGE('',*,*,#169,.F.);
#217=ORIENTED_EDGE('',*,*,#159,.F.);
#218=ORIENTED_EDGE('',*,*,#170,.T.);
#219=ORIENTED_EDGE('',*,*,#171,.F.);
#220=ORIENTED_EDGE('',*,*,#167,.F.);
#221=ORIENTED_EDGE('',*,*,#158,.F.);
#222=ORIENTED_EDGE('',*,*,#172,.T.);
#223=ORIENTED_EDGE('',*,*,#173,.F.);
#224=ORIENTED_EDGE('',*,*,#170,.F.);
#225=ORIENTED_EDGE('',*,*,#157,.F.);
#226=ORIENTED_EDGE('',*,*,#169,.T.);
#227=ORIENTED_EDGE('',*,*,#174,.F.);
#228=ORIENTED_EDGE('',*,*,#172,.F.);
#229=ORIENTED_EDGE('',*,*,#175,.T.);
#230=ORIENTED_EDGE('',*,*,#176,.T.);
#231=ORIENTED_EDGE('',*,*,#154,.F.);
#232=ORIENTED_EDGE('',*,*,#177,.F.);
#233=ORIENTED_EDGE('',*,*,#178,.T.);
#234=ORIENTED_EDGE('',*,*,#177,.T.);
#235=ORIENTED_EDGE('',*,*,#153,.F.);
#236=ORIENTED_EDGE('',*,*,#179,.F.);
#237=ORIENTED_EDGE('',*,*,#180,.T.);
#238=ORIENTED_EDGE('',*,*,#179,.T.);
#239=ORIENTED_EDGE('',*,*,#152,.F.);
#240=ORIENTED_EDGE('',*,*,#181,.F.);
#241=ORIENTED_EDGE('',*,*,#182,.T.);
#242=ORIENTED_EDGE('',*,*,#181,.T.);
#243=ORIENTED_EDGE('',*,*,#151,.F.);
#244=ORIENTED_EDGE('',*,*,#176,.F.);
#245=ORIENTED_EDGE('',*,*,#182,.F.);
#246=ORIENTED_EDGE('',*,*,#175,.F.);
#247=ORIENTED_EDGE('',*,*,#178,.F.);
#248=ORIENTED_EDGE('',*,*,#180,.F.);
#249=ORIENTED_EDGE('',*,*,#161,.T.);
#250=ORIENTED_EDGE('',*,*,#166,.T.);
#251=ORIENTED_EDGE('',*,*,#168,.T.);
#252=ORIENTED_EDGE('',*,*,#171,.T.);
#253=ORIENTED_EDGE('',*,*,#173,.T.);
#254=ORIENTED_EDGE('',*,*,#174,.T.);
#255=CONICAL_SURFACE('',#294,3.25,0.785398163397446);
#256=CONICAL_SURFACE('',#306,3.25,0.785398163397446);
#257=ADVANCED_FACE('',(#33),#255,.F.);
#258=ADVANCED_FACE('',(#34,#21,#22,#23),#27,.T.);
#259=ADVANCED_FACE('',(#35),#15,.F.);
#260=ADVANCED_FACE('',(#36),#256,.F.);
#261=ADVANCED_FACE('',(#37),#16,.F.);
#262=ADVANCED_FACE('',(#38),#17,.F.);
#263=ADVANCED_FACE('',(#39),#28,.F.);
#264=ADVANCED_FACE('',(#40),#18,.F.);
#265=ADVANCED_FACE('',(#41),#29,.F.);
#266=ADVANCED_FACE('',(#42),#30,.T.);
#267=ADVANCED_FACE('',(#43),#19,.T.);
#268=ADVANCED_FACE('',(#44),#31,.T.);
#269=ADVANCED_FACE('',(#45),#20,.T.);
#270=ADVANCED_FACE('',(#46,#24,#25,#26),#32,.F.);
#271=CLOSED_SHELL('',(#257,#258,#259,#260,#261,#262,#263,#264,#265,#266,
#267,#268,#269,#270));
#272=DERIVED_UNIT_ELEMENT(#275,1.);
#273=DERIVED_UNIT_ELEMENT(#486,-3.);
#274=DIMENSIONAL_EXPONENTS(1.,0.,0.,0.,0.,0.,0.);
#275=(
CONVERSION_BASED_UNIT('gram',#277)
MASS_UNIT()
NAMED_UNIT(#274)
);
#276=(
MASS_UNIT()
NAMED_UNIT(*)
SI_UNIT(.KILO.,.GRAM.)
);
#277=MASS_MEASURE_WITH_UNIT(MASS_MEASURE(0.001),#276);
#278=DERIVED_UNIT((#272,#273));
#279=MEASURE_REPRESENTATION_ITEM('density measure',
POSITIVE_RATIO_MEASURE(8.),#278);
#280=PROPERTY_DEFINITION_REPRESENTATION(#285,#282);
#281=PROPERTY_DEFINITION_REPRESENTATION(#286,#283);
#282=REPRESENTATION('material name',(#284),#483);
#283=REPRESENTATION('density',(#279),#483);
#284=DESCRIPTIVE_REPRESENTATION_ITEM('Edelstahl AISI 304',
'Edelstahl AISI 304');
#285=PROPERTY_DEFINITION('material property','material name',#493);
#286=PROPERTY_DEFINITION('material property','density of part',#493);
#287=DATE_TIME_ROLE('creation_date');
#288=APPLIED_DATE_AND_TIME_ASSIGNMENT(#289,#287,(#493));
#289=DATE_AND_TIME(#290,#291);
#290=CALENDAR_DATE(2021,22,10);
#291=LOCAL_TIME(0,0,0.,#292);
#292=COORDINATED_UNIVERSAL_TIME_OFFSET(0,0,.BEHIND.);
#293=AXIS2_PLACEMENT_3D('placement',#406,#324,#325);
#294=AXIS2_PLACEMENT_3D('',#407,#326,#327);
#295=AXIS2_PLACEMENT_3D('',#409,#328,#329);
#296=AXIS2_PLACEMENT_3D('',#413,#331,#332);
#297=AXIS2_PLACEMENT_3D('',#414,#333,#334);
#298=AXIS2_PLACEMENT_3D('',#415,#335,#336);
#299=AXIS2_PLACEMENT_3D('',#418,#337,#338);
#300=AXIS2_PLACEMENT_3D('',#422,#340,#341);
#301=AXIS2_PLACEMENT_3D('',#425,#343,#344);
#302=AXIS2_PLACEMENT_3D('',#428,#345,#346);
#303=AXIS2_PLACEMENT_3D('',#432,#348,#349);
#304=AXIS2_PLACEMENT_3D('',#434,#351,#352);
#305=AXIS2_PLACEMENT_3D('',#437,#354,#355);
#306=AXIS2_PLACEMENT_3D('',#438,#356,#357);
#307=AXIS2_PLACEMENT_3D('',#442,#359,#360);
#308=AXIS2_PLACEMENT_3D('',#443,#361,#362);
#309=AXIS2_PLACEMENT_3D('',#444,#363,#364);
#310=AXIS2_PLACEMENT_3D('',#447,#366,#367);
#311=AXIS2_PLACEMENT_3D('',#448,#368,#369);
#312=AXIS2_PLACEMENT_3D('',#452,#371,#372);
#313=AXIS2_PLACEMENT_3D('',#454,#374,#375);
#314=AXIS2_PLACEMENT_3D('',#458,#378,#379);
#315=AXIS2_PLACEMENT_3D('',#461,#381,#382);
#316=AXIS2_PLACEMENT_3D('',#462,#383,#384);
#317=AXIS2_PLACEMENT_3D('',#464,#386,#387);
#318=AXIS2_PLACEMENT_3D('',#470,#391,#392);
#319=AXIS2_PLACEMENT_3D('',#472,#393,#394);
#320=AXIS2_PLACEMENT_3D('',#474,#396,#397);
#321=AXIS2_PLACEMENT_3D('',#478,#400,#401);
#322=AXIS2_PLACEMENT_3D('',#479,#402,#403);
#323=AXIS2_PLACEMENT_3D('',#480,#404,#405);
#324=DIRECTION('axis',(0.,0.,1.));
#325=DIRECTION('refdir',(1.,0.,0.));
#326=DIRECTION('center_axis',(0.,1.,0.));
#327=DIRECTION('ref_axis',(-1.,0.,0.));
#328=DIRECTION('center_axis',(0.,1.,0.));
#329=DIRECTION('ref_axis',(-1.,0.,0.));
#330=DIRECTION('',(-0.707106781186546,-0.707106781186549,8.65956056235492E-17));
#331=DIRECTION('center_axis',(0.,-1.,0.));
#332=DIRECTION('ref_axis',(-1.,0.,0.));
#333=DIRECTION('center_axis',(0.,-1.,0.));
#334=DIRECTION('ref_axis',(-1.,0.,0.));
#335=DIRECTION('center_axis',(0.,1.,0.));
#336=DIRECTION('ref_axis',(0.,0.,1.));
#337=DIRECTION('center_axis',(0.,1.,0.));
#338=DIRECTION('ref_axis',(0.,0.,-1.));
#339=DIRECTION('',(1.,0.,-1.07440937866951E-16));
#340=DIRECTION('center_axis',(0.,1.,0.));
#341=DIRECTION('ref_axis',(0.,0.,1.));
#342=DIRECTION('',(-1.,0.,0.));
#343=DIRECTION('center_axis',(0.,1.,0.));
#344=DIRECTION('ref_axis',(-1.,0.,0.));
#345=DIRECTION('center_axis',(0.,-1.,0.));
#346=DIRECTION('ref_axis',(0.,0.,1.));
#347=DIRECTION('',(-1.,0.,2.39272203583008E-17));
#348=DIRECTION('center_axis',(0.,-1.,0.));
#349=DIRECTION('ref_axis',(1.,0.,0.));
#350=DIRECTION('',(1.,0.,-9.57088814332031E-17));
#351=DIRECTION('center_axis',(0.,-1.,0.));
#352=DIRECTION('ref_axis',(1.,0.,0.));
#353=DIRECTION('',(0.,-1.,0.));
#354=DIRECTION('center_axis',(0.,1.,0.));
#355=DIRECTION('ref_axis',(1.,0.,0.));
#356=DIRECTION('center_axis',(0.,1.,0.));
#357=DIRECTION('ref_axis',(-1.,0.,0.));
#358=DIRECTION('',(-0.707106781186546,-0.707106781186549,8.65956056235492E-17));
#359=DIRECTION('center_axis',(0.,-1.,0.));
#360=DIRECTION('ref_axis',(-1.,0.,0.));
#361=DIRECTION('center_axis',(0.,-1.,0.));
#362=DIRECTION('ref_axis',(-1.,0.,0.));
#363=DIRECTION('center_axis',(0.,-1.,0.));
#364=DIRECTION('ref_axis',(1.,0.,0.));
#365=DIRECTION('',(0.,-1.,0.));
#366=DIRECTION('center_axis',(0.,1.,0.));
#367=DIRECTION('ref_axis',(1.,0.,0.));
#368=DIRECTION('center_axis',(0.,-1.,0.));
#369=DIRECTION('ref_axis',(0.,0.,1.));
#370=DIRECTION('',(0.,-1.,0.));
#371=DIRECTION('center_axis',(0.,1.,0.));
#372=DIRECTION('ref_axis',(0.,0.,1.));
#373=DIRECTION('',(0.,-1.,0.));
#374=DIRECTION('center_axis',(-9.57088814332031E-17,0.,-1.));
#375=DIRECTION('ref_axis',(1.,0.,-9.57088814332031E-17));
#376=DIRECTION('',(0.,-1.,0.));
#377=DIRECTION('',(-1.,0.,9.57088814332031E-17));
#378=DIRECTION('center_axis',(0.,-1.,0.));
#379=DIRECTION('ref_axis',(-1.,0.,1.22464679914735E-16));
#380=DIRECTION('',(0.,-1.,0.));
#381=DIRECTION('center_axis',(0.,1.,0.));
#382=DIRECTION('ref_axis',(1.,0.,0.));
#383=DIRECTION('center_axis',(2.39272203583008E-17,0.,1.));
#384=DIRECTION('ref_axis',(-1.,0.,2.39272203583008E-17));
#385=DIRECTION('',(1.,0.,-2.39272203583008E-17));
#386=DIRECTION('center_axis',(0.,0.,-1.));
#387=DIRECTION('ref_axis',(-1.,0.,0.));
#388=DIRECTION('',(-1.,0.,0.));
#389=DIRECTION('',(0.,1.,0.));
#390=DIRECTION('',(0.,1.,0.));
#391=DIRECTION('center_axis',(0.,1.,0.));
#392=DIRECTION('ref_axis',(0.,0.,1.));
#393=DIRECTION('center_axis',(0.,1.,0.));
#394=DIRECTION('ref_axis',(0.,0.,1.));
#395=DIRECTION('',(0.,1.,0.));
#396=DIRECTION('center_axis',(1.07440937866951E-16,0.,1.));
#397=DIRECTION('ref_axis',(1.,0.,-1.07440937866951E-16));
#398=DIRECTION('',(1.,0.,-1.07440937866951E-16));
#399=DIRECTION('',(0.,1.,0.));
#400=DIRECTION('center_axis',(0.,1.,0.));
#401=DIRECTION('ref_axis',(0.,0.,-1.));
#402=DIRECTION('center_axis',(0.,1.,0.));
#403=DIRECTION('ref_axis',(0.,0.,-1.));
#404=DIRECTION('center_axis',(0.,1.,0.));
#405=DIRECTION('ref_axis',(0.,0.,1.));
#406=CARTESIAN_POINT('',(0.,0.,0.));
#407=CARTESIAN_POINT('Origin',(-81.,5.,1.02870331128378E-14));
#408=CARTESIAN_POINT('',(-76.75,6.,9.76655822320014E-15));
#409=CARTESIAN_POINT('Origin',(-81.,6.,1.02870331128378E-14));
#410=CARTESIAN_POINT('',(-78.75,4.,1.05625786426459E-14));
#411=CARTESIAN_POINT('',(-77.75,5.,9.88902290311488E-15));
#412=CARTESIAN_POINT('',(-83.25,4.,1.00114875830296E-14));
#413=CARTESIAN_POINT('Origin',(-81.,4.,1.02870331128378E-14));
#414=CARTESIAN_POINT('Origin',(-81.,4.,1.02870331128378E-14));
#415=CARTESIAN_POINT('Origin',(-78.,6.,6.66133814775094E-15));
#416=CARTESIAN_POINT('',(-140.,6.,-16.));
#417=CARTESIAN_POINT('',(-140.,6.,16.));
#418=CARTESIAN_POINT('Origin',(-140.,6.,0.));
#419=CARTESIAN_POINT('',(-16.,6.,16.));
#420=CARTESIAN_POINT('',(-140.,6.,16.));
#421=CARTESIAN_POINT('',(-16.,6.,-16.));
#422=CARTESIAN_POINT('Origin',(-16.,6.,0.));
#423=CARTESIAN_POINT('',(-16.,6.,-16.));
#424=CARTESIAN_POINT('',(-143.75,6.,-5.20474889637624E-16));
#425=CARTESIAN_POINT('Origin',(-148.,6.,0.));
#426=CARTESIAN_POINT('',(-10.55,6.,-5.));
#427=CARTESIAN_POINT('',(-10.55,6.,5.));
#428=CARTESIAN_POINT('Origin',(-10.55,6.,7.68465866464964E-16));
#429=CARTESIAN_POINT('',(-22.8192966918275,6.,5.));
#430=CARTESIAN_POINT('',(-44.275,6.,5.));
#431=CARTESIAN_POINT('',(-22.8192966918275,6.,-5.));
#432=CARTESIAN_POINT('Origin',(-30.,6.,7.68465866464964E-16));
#433=CARTESIAN_POINT('',(-50.4096483459137,6.,-5.));
#434=CARTESIAN_POINT('Origin',(-81.,6.,1.02870331128378E-14));
#435=CARTESIAN_POINT('',(-83.25,0.,1.00114875830296E-14));
#436=CARTESIAN_POINT('',(-83.25,6.,1.00114875830296E-14));
#437=CARTESIAN_POINT('Origin',(-81.,0.,1.02870331128378E-14));
#438=CARTESIAN_POINT('Origin',(-148.,5.,0.));
#439=CARTESIAN_POINT('',(-145.75,4.,2.75545529808154E-16));
#440=CARTESIAN_POINT('',(-144.75,5.,-3.98010209722889E-16));
#441=CARTESIAN_POINT('',(-150.25,4.,-2.75545529808154E-16));
#442=CARTESIAN_POINT('Origin',(-148.,4.,0.));
#443=CARTESIAN_POINT('Origin',(-148.,4.,0.));
#444=CARTESIAN_POINT('Origin',(-148.,6.,0.));
#445=CARTESIAN_POINT('',(-150.25,0.,-2.75545529808154E-16));
#446=CARTESIAN_POINT('',(-150.25,6.,-2.75545529808154E-16));
#447=CARTESIAN_POINT('Origin',(-148.,0.,0.));
#448=CARTESIAN_POINT('Origin',(-10.55,6.,7.68465866464964E-16));
#449=CARTESIAN_POINT('',(-10.55,0.,-5.));
#450=CARTESIAN_POINT('',(-10.55,6.,-5.));
#451=CARTESIAN_POINT('',(-10.55,0.,5.));
#452=CARTESIAN_POINT('Origin',(-10.55,0.,7.68465866464964E-16));
#453=CARTESIAN_POINT('',(-10.55,6.,5.));
#454=CARTESIAN_POINT('Origin',(-22.8192966918275,6.,-5.));
#455=CARTESIAN_POINT('',(-22.8192966918275,0.,-5.));
#456=CARTESIAN_POINT('',(-22.8192966918275,6.,-5.));
#457=CARTESIAN_POINT('',(-50.4096483459137,0.,-5.));
#458=CARTESIAN_POINT('Origin',(-30.,6.,7.68465866464964E-16));
#459=CARTESIAN_POINT('',(-22.8192966918275,0.,5.));
#460=CARTESIAN_POINT('',(-22.8192966918275,6.,5.));
#461=CARTESIAN_POINT('Origin',(-30.,0.,7.68465866464964E-16));
#462=CARTESIAN_POINT('Origin',(-10.55,6.,5.));
#463=CARTESIAN_POINT('',(-44.275,0.,5.));
#464=CARTESIAN_POINT('Origin',(-16.,0.,-16.));
#465=CARTESIAN_POINT('',(-16.,0.,-16.));
#466=CARTESIAN_POINT('',(-140.,0.,-16.));
#467=CARTESIAN_POINT('',(-16.,0.,-16.));
#468=CARTESIAN_POINT('',(-140.,0.,-16.));
#469=CARTESIAN_POINT('',(-16.,0.,-16.));
#470=CARTESIAN_POINT('Origin',(-16.,0.,0.));
#471=CARTESIAN_POINT('',(-16.,0.,16.));
#472=CARTESIAN_POINT('Origin',(-16.,0.,0.));
#473=CARTESIAN_POINT('',(-16.,0.,16.));
#474=CARTESIAN_POINT('Origin',(-140.,0.,16.));
#475=CARTESIAN_POINT('',(-140.,0.,16.));
#476=CARTESIAN_POINT('',(-140.,0.,16.));
#477=CARTESIAN_POINT('',(-140.,0.,16.));
#478=CARTESIAN_POINT('Origin',(-140.,0.,0.));
#479=CARTESIAN_POINT('Origin',(-140.,0.,0.));
#480=CARTESIAN_POINT('Origin',(-78.,0.,6.66133814775094E-15));
#481=UNCERTAINTY_MEASURE_WITH_UNIT(LENGTH_MEASURE(0.01),#485,
'DISTANCE_ACCURACY_VALUE',
'Maximum model space distance between geometric entities at asserted c
onnectivities');
#482=UNCERTAINTY_MEASURE_WITH_UNIT(LENGTH_MEASURE(0.01),#485,
'DISTANCE_ACCURACY_VALUE',
'Maximum model space distance between geometric entities at asserted c
onnectivities');
#483=(
GEOMETRIC_REPRESENTATION_CONTEXT(3)
GLOBAL_UNCERTAINTY_ASSIGNED_CONTEXT((#481))
GLOBAL_UNIT_ASSIGNED_CONTEXT((#485,#487,#488))
REPRESENTATION_CONTEXT('','3D')
);
#484=(
GEOMETRIC_REPRESENTATION_CONTEXT(3)
GLOBAL_UNCERTAINTY_ASSIGNED_CONTEXT((#482))
GLOBAL_UNIT_ASSIGNED_CONTEXT((#485,#487,#488))
REPRESENTATION_CONTEXT('','3D')
);
#485=(
LENGTH_UNIT()
NAMED_UNIT(*)
SI_UNIT(.MILLI.,.METRE.)
);
#486=(
LENGTH_UNIT()
NAMED_UNIT(*)
SI_UNIT(.CENTI.,.METRE.)
);
#487=(
NAMED_UNIT(*)
PLANE_ANGLE_UNIT()
SI_UNIT($,.RADIAN.)
);
#488=(
NAMED_UNIT(*)
SI_UNIT($,.STERADIAN.)
SOLID_ANGLE_UNIT()
);
#489=SHAPE_DEFINITION_REPRESENTATION(#490,#491);
#490=PRODUCT_DEFINITION_SHAPE('',$,#493);
#491=SHAPE_REPRESENTATION('',(#293),#483);
#492=PRODUCT_DEFINITION_CONTEXT('part definition',#497,'design');
#493=PRODUCT_DEFINITION('43128','43128',#494,#492);
#494=PRODUCT_DEFINITION_FORMATION('',$,#499);
#495=PRODUCT_RELATED_PRODUCT_CATEGORY('43128','43128',(#499));
#496=APPLICATION_PROTOCOL_DEFINITION('international standard',
'automotive_design',2009,#497);
#497=APPLICATION_CONTEXT(
'Core Data for Automotive Mechanical Design Process');
#498=PRODUCT_CONTEXT('part definition',#497,'mechanical');
#499=PRODUCT('43128','43128',$,(#498));
#500=PRESENTATION_STYLE_ASSIGNMENT((#501));
#501=SURFACE_STYLE_USAGE(.BOTH.,#504);
#502=SURFACE_STYLE_RENDERING_WITH_PROPERTIES($,#508,(#503));
#503=SURFACE_STYLE_TRANSPARENT(0.);
#504=SURFACE_SIDE_STYLE('',(#505,#502));
#505=SURFACE_STYLE_FILL_AREA(#506);
#506=FILL_AREA_STYLE('',(#507));
#507=FILL_AREA_STYLE_COLOUR('',#508);
#508=COLOUR_RGB('',0.956862745098039,0.956862745098039,0.956862745098039);
ENDSEC;
END-ISO-10303-21;
