ISO-10303-21;
HEADER;
/* Generated by software containing ST-Developer
 * from STEP Tools, Inc. (www.steptools.com) 
 */

FILE_DESCRIPTION(
/* description */ (''),
/* implementation_level */ '2;1');

FILE_NAME(
/* name */ 
'C:\\Users\\O.Boryczka\\Desktop\\Korrigierte Zeichnungen\\Bodenplatten
 V2A\\43178.ipt.step',
/* time_stamp */ '2022-07-18T12:53:37+02:00',
/* author */ ('Abt. Technik'),
/* organization */ (''),
/* preprocessor_version */ 'ST-DEVELOPER v18.1',
/* originating_system */ 'Autodesk Inventor 2022',
/* authorisation */ '');

FILE_SCHEMA (('AUTOMOTIVE_DESIGN { 1 0 10303 214 3 1 1 }'));
ENDSEC;

DATA;
#10=MECHANICAL_DESIGN_GEOMETRIC_PRESENTATION_REPRESENTATION('',(#13),#331);
#11=SHAPE_REPRESENTATION_RELATIONSHIP('SRR','None',#338,#12);
#12=ADVANCED_BREP_SHAPE_REPRESENTATION('',(#14),#330);
#13=STYLED_ITEM('',(#347),#14);
#14=MANIFOLD_SOLID_BREP('Volumenk\X\F6rper1',#178);
#15=FACE_BOUND('',#46,.T.);
#16=FACE_BOUND('',#53,.T.);
#17=FACE_BOUND('',#54,.T.);
#18=FACE_BOUND('',#55,.T.);
#19=FACE_BOUND('',#56,.T.);
#20=FACE_BOUND('',#58,.T.);
#21=FACE_BOUND('',#59,.T.);
#22=FACE_BOUND('',#60,.T.);
#23=FACE_BOUND('',#61,.T.);
#24=PLANE('',#207);
#25=PLANE('',#223);
#26=PLANE('',#224);
#27=CYLINDRICAL_SURFACE('',#205,18.7);
#28=CYLINDRICAL_SURFACE('',#209,17.2);
#29=CYLINDRICAL_SURFACE('',#211,5.5);
#30=CYLINDRICAL_SURFACE('',#214,5.5);
#31=CYLINDRICAL_SURFACE('',#217,5.5);
#32=CYLINDRICAL_SURFACE('',#220,60.);
#33=FACE_OUTER_BOUND('',#43,.T.);
#34=FACE_OUTER_BOUND('',#44,.T.);
#35=FACE_OUTER_BOUND('',#45,.T.);
#36=FACE_OUTER_BOUND('',#47,.T.);
#37=FACE_OUTER_BOUND('',#48,.T.);
#38=FACE_OUTER_BOUND('',#49,.T.);
#39=FACE_OUTER_BOUND('',#50,.T.);
#40=FACE_OUTER_BOUND('',#51,.T.);
#41=FACE_OUTER_BOUND('',#52,.T.);
#42=FACE_OUTER_BOUND('',#57,.T.);
#43=EDGE_LOOP('',(#125,#126,#127,#128,#129));
#44=EDGE_LOOP('',(#130,#131,#132,#133,#134));
#45=EDGE_LOOP('',(#135));
#46=EDGE_LOOP('',(#136));
#47=EDGE_LOOP('',(#137,#138,#139,#140));
#48=EDGE_LOOP('',(#141,#142,#143,#144));
#49=EDGE_LOOP('',(#145,#146,#147,#148));
#50=EDGE_LOOP('',(#149,#150,#151,#152));
#51=EDGE_LOOP('',(#153,#154,#155,#156));
#52=EDGE_LOOP('',(#157));
#53=EDGE_LOOP('',(#158));
#54=EDGE_LOOP('',(#159));
#55=EDGE_LOOP('',(#160));
#56=EDGE_LOOP('',(#161));
#57=EDGE_LOOP('',(#162));
#58=EDGE_LOOP('',(#163));
#59=EDGE_LOOP('',(#164));
#60=EDGE_LOOP('',(#165));
#61=EDGE_LOOP('',(#166));
#62=LINE('',#287,#69);
#63=LINE('',#293,#70);
#64=LINE('',#300,#71);
#65=LINE('',#306,#72);
#66=LINE('',#312,#73);
#67=LINE('',#318,#74);
#68=LINE('',#324,#75);
#69=VECTOR('',#231,18.2);
#70=VECTOR('',#238,18.7);
#71=VECTOR('',#247,17.2);
#72=VECTOR('',#254,5.5);
#73=VECTOR('',#261,5.5);
#74=VECTOR('',#268,5.5);
#75=VECTOR('',#275,60.);
#76=CIRCLE('',#202,17.7);
#77=CIRCLE('',#203,18.7);
#78=CIRCLE('',#204,18.7);
#79=CIRCLE('',#206,18.7);
#80=CIRCLE('',#208,17.2);
#81=CIRCLE('',#210,17.2);
#82=CIRCLE('',#212,5.5);
#83=CIRCLE('',#213,5.5);
#84=CIRCLE('',#215,5.5);
#85=CIRCLE('',#216,5.5);
#86=CIRCLE('',#218,5.5);
#87=CIRCLE('',#219,5.5);
#88=CIRCLE('',#221,60.);
#89=CIRCLE('',#222,60.);
#90=VERTEX_POINT('',#284);
#91=VERTEX_POINT('',#286);
#92=VERTEX_POINT('',#288);
#93=VERTEX_POINT('',#292);
#94=VERTEX_POINT('',#296);
#95=VERTEX_POINT('',#299);
#96=VERTEX_POINT('',#303);
#97=VERTEX_POINT('',#305);
#98=VERTEX_POINT('',#309);
#99=VERTEX_POINT('',#311);
#100=VERTEX_POINT('',#315);
#101=VERTEX_POINT('',#317);
#102=VERTEX_POINT('',#321);
#103=VERTEX_POINT('',#323);
#104=EDGE_CURVE('',#90,#90,#76,.T.);
#105=EDGE_CURVE('',#90,#91,#62,.T.);
#106=EDGE_CURVE('',#91,#92,#77,.T.);
#107=EDGE_CURVE('',#92,#91,#78,.T.);
#108=EDGE_CURVE('',#92,#93,#63,.T.);
#109=EDGE_CURVE('',#93,#93,#79,.T.);
#110=EDGE_CURVE('',#94,#94,#80,.T.);
#111=EDGE_CURVE('',#94,#95,#64,.T.);
#112=EDGE_CURVE('',#95,#95,#81,.T.);
#113=EDGE_CURVE('',#96,#96,#82,.T.);
#114=EDGE_CURVE('',#96,#97,#65,.T.);
#115=EDGE_CURVE('',#97,#97,#83,.T.);
#116=EDGE_CURVE('',#98,#98,#84,.T.);
#117=EDGE_CURVE('',#98,#99,#66,.T.);
#118=EDGE_CURVE('',#99,#99,#85,.T.);
#119=EDGE_CURVE('',#100,#100,#86,.T.);
#120=EDGE_CURVE('',#100,#101,#67,.T.);
#121=EDGE_CURVE('',#101,#101,#87,.T.);
#122=EDGE_CURVE('',#102,#102,#88,.T.);
#123=EDGE_CURVE('',#102,#103,#68,.T.);
#124=EDGE_CURVE('',#103,#103,#89,.T.);
#125=ORIENTED_EDGE('',*,*,#104,.T.);
#126=ORIENTED_EDGE('',*,*,#105,.T.);
#127=ORIENTED_EDGE('',*,*,#106,.T.);
#128=ORIENTED_EDGE('',*,*,#107,.T.);
#129=ORIENTED_EDGE('',*,*,#105,.F.);
#130=ORIENTED_EDGE('',*,*,#106,.F.);
#131=ORIENTED_EDGE('',*,*,#107,.F.);
#132=ORIENTED_EDGE('',*,*,#108,.T.);
#133=ORIENTED_EDGE('',*,*,#109,.F.);
#134=ORIENTED_EDGE('',*,*,#108,.F.);
#135=ORIENTED_EDGE('',*,*,#104,.F.);
#136=ORIENTED_EDGE('',*,*,#110,.T.);
#137=ORIENTED_EDGE('',*,*,#110,.F.);
#138=ORIENTED_EDGE('',*,*,#111,.T.);
#139=ORIENTED_EDGE('',*,*,#112,.F.);
#140=ORIENTED_EDGE('',*,*,#111,.F.);
#141=ORIENTED_EDGE('',*,*,#113,.F.);
#142=ORIENTED_EDGE('',*,*,#114,.T.);
#143=ORIENTED_EDGE('',*,*,#115,.T.);
#144=ORIENTED_EDGE('',*,*,#114,.F.);
#145=ORIENTED_EDGE('',*,*,#116,.F.);
#146=ORIENTED_EDGE('',*,*,#117,.T.);
#147=ORIENTED_EDGE('',*,*,#118,.T.);
#148=ORIENTED_EDGE('',*,*,#117,.F.);
#149=ORIENTED_EDGE('',*,*,#119,.F.);
#150=ORIENTED_EDGE('',*,*,#120,.T.);
#151=ORIENTED_EDGE('',*,*,#121,.T.);
#152=ORIENTED_EDGE('',*,*,#120,.F.);
#153=ORIENTED_EDGE('',*,*,#122,.F.);
#154=ORIENTED_EDGE('',*,*,#123,.T.);
#155=ORIENTED_EDGE('',*,*,#124,.T.);
#156=ORIENTED_EDGE('',*,*,#123,.F.);
#157=ORIENTED_EDGE('',*,*,#122,.T.);
#158=ORIENTED_EDGE('',*,*,#109,.T.);
#159=ORIENTED_EDGE('',*,*,#119,.T.);
#160=ORIENTED_EDGE('',*,*,#116,.T.);
#161=ORIENTED_EDGE('',*,*,#113,.T.);
#162=ORIENTED_EDGE('',*,*,#124,.F.);
#163=ORIENTED_EDGE('',*,*,#112,.T.);
#164=ORIENTED_EDGE('',*,*,#121,.F.);
#165=ORIENTED_EDGE('',*,*,#118,.F.);
#166=ORIENTED_EDGE('',*,*,#115,.F.);
#167=CONICAL_SURFACE('',#201,18.2,0.785398163397451);
#168=ADVANCED_FACE('',(#33),#167,.T.);
#169=ADVANCED_FACE('',(#34),#27,.T.);
#170=ADVANCED_FACE('',(#35,#15),#24,.T.);
#171=ADVANCED_FACE('',(#36),#28,.F.);
#172=ADVANCED_FACE('',(#37),#29,.F.);
#173=ADVANCED_FACE('',(#38),#30,.F.);
#174=ADVANCED_FACE('',(#39),#31,.F.);
#175=ADVANCED_FACE('',(#40),#32,.T.);
#176=ADVANCED_FACE('',(#41,#16,#17,#18,#19),#25,.T.);
#177=ADVANCED_FACE('',(#42,#20,#21,#22,#23),#26,.F.);
#178=CLOSED_SHELL('',(#168,#169,#170,#171,#172,#173,#174,#175,#176,#177));
#179=DERIVED_UNIT_ELEMENT(#182,1.);
#180=DERIVED_UNIT_ELEMENT(#333,-3.);
#181=DIMENSIONAL_EXPONENTS(1.,0.,0.,0.,0.,0.,0.);
#182=(
CONVERSION_BASED_UNIT('gram',#184)
MASS_UNIT()
NAMED_UNIT(#181)
);
#183=(
MASS_UNIT()
NAMED_UNIT(*)
SI_UNIT(.KILO.,.GRAM.)
);
#184=MASS_MEASURE_WITH_UNIT(MASS_MEASURE(0.001),#183);
#185=DERIVED_UNIT((#179,#180));
#186=MEASURE_REPRESENTATION_ITEM('density measure',
POSITIVE_RATIO_MEASURE(8.),#185);
#187=PROPERTY_DEFINITION_REPRESENTATION(#192,#189);
#188=PROPERTY_DEFINITION_REPRESENTATION(#193,#190);
#189=REPRESENTATION('material name',(#191),#330);
#190=REPRESENTATION('density',(#186),#330);
#191=DESCRIPTIVE_REPRESENTATION_ITEM('Edelstahl AISI 304',
'Edelstahl AISI 304');
#192=PROPERTY_DEFINITION('material property','material name',#340);
#193=PROPERTY_DEFINITION('material property','density of part',#340);
#194=DATE_TIME_ROLE('creation_date');
#195=APPLIED_DATE_AND_TIME_ASSIGNMENT(#196,#194,(#340));
#196=DATE_AND_TIME(#197,#198);
#197=CALENDAR_DATE(2021,17,6);
#198=LOCAL_TIME(0,0,0.,#199);
#199=COORDINATED_UNIVERSAL_TIME_OFFSET(0,0,.BEHIND.);
#200=AXIS2_PLACEMENT_3D('placement',#282,#225,#226);
#201=AXIS2_PLACEMENT_3D('',#283,#227,#228);
#202=AXIS2_PLACEMENT_3D('',#285,#229,#230);
#203=AXIS2_PLACEMENT_3D('',#289,#232,#233);
#204=AXIS2_PLACEMENT_3D('',#290,#234,#235);
#205=AXIS2_PLACEMENT_3D('',#291,#236,#237);
#206=AXIS2_PLACEMENT_3D('',#294,#239,#240);
#207=AXIS2_PLACEMENT_3D('',#295,#241,#242);
#208=AXIS2_PLACEMENT_3D('',#297,#243,#244);
#209=AXIS2_PLACEMENT_3D('',#298,#245,#246);
#210=AXIS2_PLACEMENT_3D('',#301,#248,#249);
#211=AXIS2_PLACEMENT_3D('',#302,#250,#251);
#212=AXIS2_PLACEMENT_3D('',#304,#252,#253);
#213=AXIS2_PLACEMENT_3D('',#307,#255,#256);
#214=AXIS2_PLACEMENT_3D('',#308,#257,#258);
#215=AXIS2_PLACEMENT_3D('',#310,#259,#260);
#216=AXIS2_PLACEMENT_3D('',#313,#262,#263);
#217=AXIS2_PLACEMENT_3D('',#314,#264,#265);
#218=AXIS2_PLACEMENT_3D('',#316,#266,#267);
#219=AXIS2_PLACEMENT_3D('',#319,#269,#270);
#220=AXIS2_PLACEMENT_3D('',#320,#271,#272);
#221=AXIS2_PLACEMENT_3D('',#322,#273,#274);
#222=AXIS2_PLACEMENT_3D('',#325,#276,#277);
#223=AXIS2_PLACEMENT_3D('',#326,#278,#279);
#224=AXIS2_PLACEMENT_3D('',#327,#280,#281);
#225=DIRECTION('axis',(0.,0.,1.));
#226=DIRECTION('refdir',(1.,0.,0.));
#227=DIRECTION('center_axis',(0.,-1.,0.));
#228=DIRECTION('ref_axis',(-1.,0.,0.));
#229=DIRECTION('center_axis',(0.,-1.,0.));
#230=DIRECTION('ref_axis',(-1.,0.,0.));
#231=DIRECTION('',(0.707106781186549,-0.707106781186546,-8.65956056235495E-17));
#232=DIRECTION('center_axis',(0.,1.,0.));
#233=DIRECTION('ref_axis',(-1.,0.,0.));
#234=DIRECTION('center_axis',(0.,1.,0.));
#235=DIRECTION('ref_axis',(-1.,0.,0.));
#236=DIRECTION('center_axis',(0.,1.,0.));
#237=DIRECTION('ref_axis',(1.,0.,0.));
#238=DIRECTION('',(0.,-1.,0.));
#239=DIRECTION('center_axis',(0.,-1.,0.));
#240=DIRECTION('ref_axis',(1.,0.,0.));
#241=DIRECTION('center_axis',(0.,1.,0.));
#242=DIRECTION('ref_axis',(0.,0.,1.));
#243=DIRECTION('center_axis',(0.,-1.,0.));
#244=DIRECTION('ref_axis',(1.,0.,0.));
#245=DIRECTION('center_axis',(0.,-1.,0.));
#246=DIRECTION('ref_axis',(1.,0.,0.));
#247=DIRECTION('',(0.,-1.,0.));
#248=DIRECTION('center_axis',(0.,1.,0.));
#249=DIRECTION('ref_axis',(1.,0.,0.));
#250=DIRECTION('center_axis',(0.,1.,0.));
#251=DIRECTION('ref_axis',(1.,0.,0.));
#252=DIRECTION('center_axis',(0.,-1.,0.));
#253=DIRECTION('ref_axis',(1.,0.,0.));
#254=DIRECTION('',(0.,-1.,0.));
#255=DIRECTION('center_axis',(0.,-1.,0.));
#256=DIRECTION('ref_axis',(1.,0.,0.));
#257=DIRECTION('center_axis',(0.,1.,0.));
#258=DIRECTION('ref_axis',(1.,0.,0.));
#259=DIRECTION('center_axis',(0.,-1.,0.));
#260=DIRECTION('ref_axis',(1.,0.,0.));
#261=DIRECTION('',(0.,-1.,0.));
#262=DIRECTION('center_axis',(0.,-1.,0.));
#263=DIRECTION('ref_axis',(1.,0.,0.));
#264=DIRECTION('center_axis',(0.,1.,0.));
#265=DIRECTION('ref_axis',(1.,0.,0.));
#266=DIRECTION('center_axis',(0.,-1.,0.));
#267=DIRECTION('ref_axis',(1.,0.,0.));
#268=DIRECTION('',(0.,-1.,0.));
#269=DIRECTION('center_axis',(0.,-1.,0.));
#270=DIRECTION('ref_axis',(1.,0.,0.));
#271=DIRECTION('center_axis',(0.,1.,0.));
#272=DIRECTION('ref_axis',(-1.,0.,0.));
#273=DIRECTION('center_axis',(0.,1.,0.));
#274=DIRECTION('ref_axis',(-1.,0.,0.));
#275=DIRECTION('',(0.,-1.,0.));
#276=DIRECTION('center_axis',(0.,1.,0.));
#277=DIRECTION('ref_axis',(-1.,0.,0.));
#278=DIRECTION('center_axis',(0.,1.,0.));
#279=DIRECTION('ref_axis',(0.,0.,1.));
#280=DIRECTION('center_axis',(0.,1.,0.));
#281=DIRECTION('ref_axis',(0.,0.,1.));
#282=CARTESIAN_POINT('',(0.,0.,0.));
#283=CARTESIAN_POINT('Origin',(0.,59.5,0.));
#284=CARTESIAN_POINT('',(17.7,60.,2.16762483449082E-15));
#285=CARTESIAN_POINT('Origin',(0.,60.,0.));
#286=CARTESIAN_POINT('',(18.7,59.,-2.29008951440555E-15));
#287=CARTESIAN_POINT('',(18.2,59.5,-2.22885717444818E-15));
#288=CARTESIAN_POINT('',(-18.7,59.,2.29008951440555E-15));
#289=CARTESIAN_POINT('Origin',(0.,59.,0.));
#290=CARTESIAN_POINT('Origin',(0.,59.,0.));
#291=CARTESIAN_POINT('Origin',(0.,10.,0.));
#292=CARTESIAN_POINT('',(-18.7,10.,2.29008951440555E-15));
#293=CARTESIAN_POINT('',(-18.7,10.,2.29008951440555E-15));
#294=CARTESIAN_POINT('Origin',(0.,10.,0.));
#295=CARTESIAN_POINT('Origin',(0.,60.,0.));
#296=CARTESIAN_POINT('',(-17.2,60.,-2.10639249453345E-15));
#297=CARTESIAN_POINT('Origin',(0.,60.,0.));
#298=CARTESIAN_POINT('Origin',(0.,60.,0.));
#299=CARTESIAN_POINT('',(-17.2,0.,2.10639249453345E-15));
#300=CARTESIAN_POINT('',(-17.2,60.,-2.10639249453345E-15));
#301=CARTESIAN_POINT('Origin',(0.,0.,0.));
#302=CARTESIAN_POINT('Origin',(-47.5,0.,0.));
#303=CARTESIAN_POINT('',(-53.,10.,6.73555739531044E-16));
#304=CARTESIAN_POINT('Origin',(-47.5,10.,0.));
#305=CARTESIAN_POINT('',(-53.,0.,6.73555739531044E-16));
#306=CARTESIAN_POINT('',(-53.,0.,6.73555739531044E-16));
#307=CARTESIAN_POINT('Origin',(-47.5,0.,0.));
#308=CARTESIAN_POINT('Origin',(23.75,0.,-41.1362066797608));
#309=CARTESIAN_POINT('',(18.25,10.,-41.1362066797608));
#310=CARTESIAN_POINT('Origin',(23.75,10.,-41.1362066797608));
#311=CARTESIAN_POINT('',(18.25,0.,-41.1362066797608));
#312=CARTESIAN_POINT('',(18.25,0.,-41.1362066797608));
#313=CARTESIAN_POINT('Origin',(23.75,0.,-41.1362066797608));
#314=CARTESIAN_POINT('Origin',(23.75,0.,41.1362066797608));
#315=CARTESIAN_POINT('',(18.25,10.,41.1362066797608));
#316=CARTESIAN_POINT('Origin',(23.75,10.,41.1362066797608));
#317=CARTESIAN_POINT('',(18.25,0.,41.1362066797608));
#318=CARTESIAN_POINT('',(18.25,0.,41.1362066797608));
#319=CARTESIAN_POINT('Origin',(23.75,0.,41.1362066797608));
#320=CARTESIAN_POINT('Origin',(0.,0.,0.));
#321=CARTESIAN_POINT('',(60.,10.,-7.34788079488412E-15));
#322=CARTESIAN_POINT('Origin',(0.,10.,0.));
#323=CARTESIAN_POINT('',(60.,0.,-7.34788079488412E-15));
#324=CARTESIAN_POINT('',(60.,0.,-7.34788079488412E-15));
#325=CARTESIAN_POINT('Origin',(0.,0.,0.));
#326=CARTESIAN_POINT('Origin',(0.,10.,0.));
#327=CARTESIAN_POINT('Origin',(0.,0.,0.));
#328=UNCERTAINTY_MEASURE_WITH_UNIT(LENGTH_MEASURE(0.01),#332,
'DISTANCE_ACCURACY_VALUE',
'Maximum model space distance between geometric entities at asserted c
onnectivities');
#329=UNCERTAINTY_MEASURE_WITH_UNIT(LENGTH_MEASURE(0.01),#332,
'DISTANCE_ACCURACY_VALUE',
'Maximum model space distance between geometric entities at asserted c
onnectivities');
#330=(
GEOMETRIC_REPRESENTATION_CONTEXT(3)
GLOBAL_UNCERTAINTY_ASSIGNED_CONTEXT((#328))
GLOBAL_UNIT_ASSIGNED_CONTEXT((#332,#334,#335))
REPRESENTATION_CONTEXT('','3D')
);
#331=(
GEOMETRIC_REPRESENTATION_CONTEXT(3)
GLOBAL_UNCERTAINTY_ASSIGNED_CONTEXT((#329))
GLOBAL_UNIT_ASSIGNED_CONTEXT((#332,#334,#335))
REPRESENTATION_CONTEXT('','3D')
);
#332=(
LENGTH_UNIT()
NAMED_UNIT(*)
SI_UNIT(.MILLI.,.METRE.)
);
#333=(
LENGTH_UNIT()
NAMED_UNIT(*)
SI_UNIT(.CENTI.,.METRE.)
);
#334=(
NAMED_UNIT(*)
PLANE_ANGLE_UNIT()
SI_UNIT($,.RADIAN.)
);
#335=(
NAMED_UNIT(*)
SI_UNIT($,.STERADIAN.)
SOLID_ANGLE_UNIT()
);
#336=SHAPE_DEFINITION_REPRESENTATION(#337,#338);
#337=PRODUCT_DEFINITION_SHAPE('',$,#340);
#338=SHAPE_REPRESENTATION('',(#200),#330);
#339=PRODUCT_DEFINITION_CONTEXT('part definition',#344,'design');
#340=PRODUCT_DEFINITION('43178','43178',#341,#339);
#341=PRODUCT_DEFINITION_FORMATION('',$,#346);
#342=PRODUCT_RELATED_PRODUCT_CATEGORY('43178','43178',(#346));
#343=APPLICATION_PROTOCOL_DEFINITION('international standard',
'automotive_design',2009,#344);
#344=APPLICATION_CONTEXT(
'Core Data for Automotive Mechanical Design Process');
#345=PRODUCT_CONTEXT('part definition',#344,'mechanical');
#346=PRODUCT('43178','43178',$,(#345));
#347=PRESENTATION_STYLE_ASSIGNMENT((#348));
#348=SURFACE_STYLE_USAGE(.BOTH.,#351);
#349=SURFACE_STYLE_RENDERING_WITH_PROPERTIES($,#355,(#350));
#350=SURFACE_STYLE_TRANSPARENT(0.);
#351=SURFACE_SIDE_STYLE('',(#352,#349));
#352=SURFACE_STYLE_FILL_AREA(#353);
#353=FILL_AREA_STYLE('',(#354));
#354=FILL_AREA_STYLE_COLOUR('',#355);
#355=COLOUR_RGB('',0.956862745098039,0.956862745098039,0.956862745098039);
ENDSEC;
END-ISO-10303-21;
