ISO-10303-21;
HEADER;
/* Generated by software containing ST-Developer
 * from STEP Tools, Inc. (www.steptools.com) 
 */

FILE_DESCRIPTION(
/* description */ (''),
/* implementation_level */ '2;1');

FILE_NAME(
/* name */ 
'C:\\Users\\O.Boryczka\\Desktop\\Korrigierte Zeichnungen\\Ronden mit M
ittelloch V2A\\IPT_Daten\\43184.ipt.step',
/* time_stamp */ '2022-07-18T12:57:18+02:00',
/* author */ ('Abt. Technik'),
/* organization */ (''),
/* preprocessor_version */ 'ST-DEVELOPER v18.1',
/* originating_system */ 'Autodesk Inventor 2022',
/* authorisation */ '');

FILE_SCHEMA (('AUTOMOTIVE_DESIGN { 1 0 10303 214 3 1 1 }'));
ENDSEC;

DATA;
#10=MECHANICAL_DESIGN_GEOMETRIC_PRESENTATION_REPRESENTATION('',(#13),#194);
#11=SHAPE_REPRESENTATION_RELATIONSHIP('SRR','None',#201,#12);
#12=ADVANCED_BREP_SHAPE_REPRESENTATION('',(#14),#193);
#13=STYLED_ITEM('',(#210),#14);
#14=MANIFOLD_SOLID_BREP('Volumenk\X\F6rper1',#98);
#15=CYLINDRICAL_SURFACE('',#126,5.25);
#16=CYLINDRICAL_SURFACE('',#131,30.);
#17=FACE_BOUND('',#29,.T.);
#18=FACE_BOUND('',#34,.T.);
#19=PLANE('',#124);
#20=PLANE('',#133);
#21=FACE_OUTER_BOUND('',#27,.T.);
#22=FACE_OUTER_BOUND('',#28,.T.);
#23=FACE_OUTER_BOUND('',#30,.T.);
#24=FACE_OUTER_BOUND('',#31,.T.);
#25=FACE_OUTER_BOUND('',#32,.T.);
#26=FACE_OUTER_BOUND('',#33,.T.);
#27=EDGE_LOOP('',(#68,#69,#70,#71));
#28=EDGE_LOOP('',(#72));
#29=EDGE_LOOP('',(#73));
#30=EDGE_LOOP('',(#74,#75,#76,#77));
#31=EDGE_LOOP('',(#78,#79,#80,#81,#82));
#32=EDGE_LOOP('',(#83,#84,#85,#86,#87));
#33=EDGE_LOOP('',(#88));
#34=EDGE_LOOP('',(#89));
#35=LINE('',#171,#39);
#36=LINE('',#178,#40);
#37=LINE('',#182,#41);
#38=LINE('',#188,#42);
#39=VECTOR('',#140,5.35);
#40=VECTOR('',#149,5.25);
#41=VECTOR('',#154,29.);
#42=VECTOR('',#161,30.);
#43=CIRCLE('',#122,5.45);
#44=CIRCLE('',#123,5.25);
#45=CIRCLE('',#125,28.);
#46=CIRCLE('',#127,5.25);
#47=CIRCLE('',#129,30.);
#48=CIRCLE('',#130,30.);
#49=CIRCLE('',#132,30.);
#50=VERTEX_POINT('',#168);
#51=VERTEX_POINT('',#170);
#52=VERTEX_POINT('',#174);
#53=VERTEX_POINT('',#177);
#54=VERTEX_POINT('',#181);
#55=VERTEX_POINT('',#183);
#56=VERTEX_POINT('',#187);
#57=EDGE_CURVE('',#50,#50,#43,.T.);
#58=EDGE_CURVE('',#50,#51,#35,.T.);
#59=EDGE_CURVE('',#51,#51,#44,.T.);
#60=EDGE_CURVE('',#52,#52,#45,.T.);
#61=EDGE_CURVE('',#51,#53,#36,.T.);
#62=EDGE_CURVE('',#53,#53,#46,.T.);
#63=EDGE_CURVE('',#52,#54,#37,.T.);
#64=EDGE_CURVE('',#54,#55,#47,.T.);
#65=EDGE_CURVE('',#55,#54,#48,.T.);
#66=EDGE_CURVE('',#55,#56,#38,.T.);
#67=EDGE_CURVE('',#56,#56,#49,.T.);
#68=ORIENTED_EDGE('',*,*,#57,.T.);
#69=ORIENTED_EDGE('',*,*,#58,.T.);
#70=ORIENTED_EDGE('',*,*,#59,.T.);
#71=ORIENTED_EDGE('',*,*,#58,.F.);
#72=ORIENTED_EDGE('',*,*,#60,.F.);
#73=ORIENTED_EDGE('',*,*,#57,.F.);
#74=ORIENTED_EDGE('',*,*,#59,.F.);
#75=ORIENTED_EDGE('',*,*,#61,.T.);
#76=ORIENTED_EDGE('',*,*,#62,.T.);
#77=ORIENTED_EDGE('',*,*,#61,.F.);
#78=ORIENTED_EDGE('',*,*,#60,.T.);
#79=ORIENTED_EDGE('',*,*,#63,.T.);
#80=ORIENTED_EDGE('',*,*,#64,.T.);
#81=ORIENTED_EDGE('',*,*,#65,.T.);
#82=ORIENTED_EDGE('',*,*,#63,.F.);
#83=ORIENTED_EDGE('',*,*,#64,.F.);
#84=ORIENTED_EDGE('',*,*,#65,.F.);
#85=ORIENTED_EDGE('',*,*,#66,.T.);
#86=ORIENTED_EDGE('',*,*,#67,.T.);
#87=ORIENTED_EDGE('',*,*,#66,.F.);
#88=ORIENTED_EDGE('',*,*,#67,.F.);
#89=ORIENTED_EDGE('',*,*,#62,.F.);
#90=CONICAL_SURFACE('',#121,5.35,0.785398163397448);
#91=CONICAL_SURFACE('',#128,29.,0.785398163397449);
#92=ADVANCED_FACE('',(#21),#90,.F.);
#93=ADVANCED_FACE('',(#22,#17),#19,.T.);
#94=ADVANCED_FACE('',(#23),#15,.F.);
#95=ADVANCED_FACE('',(#24),#91,.T.);
#96=ADVANCED_FACE('',(#25),#16,.T.);
#97=ADVANCED_FACE('',(#26,#18),#20,.F.);
#98=CLOSED_SHELL('',(#92,#93,#94,#95,#96,#97));
#99=DERIVED_UNIT_ELEMENT(#102,1.);
#100=DERIVED_UNIT_ELEMENT(#196,-3.);
#101=DIMENSIONAL_EXPONENTS(1.,0.,0.,0.,0.,0.,0.);
#102=(
CONVERSION_BASED_UNIT('gram',#104)
MASS_UNIT()
NAMED_UNIT(#101)
);
#103=(
MASS_UNIT()
NAMED_UNIT(*)
SI_UNIT(.KILO.,.GRAM.)
);
#104=MASS_MEASURE_WITH_UNIT(MASS_MEASURE(0.001),#103);
#105=DERIVED_UNIT((#99,#100));
#106=MEASURE_REPRESENTATION_ITEM('density measure',
POSITIVE_RATIO_MEASURE(8.),#105);
#107=PROPERTY_DEFINITION_REPRESENTATION(#112,#109);
#108=PROPERTY_DEFINITION_REPRESENTATION(#113,#110);
#109=REPRESENTATION('material name',(#111),#193);
#110=REPRESENTATION('density',(#106),#193);
#111=DESCRIPTIVE_REPRESENTATION_ITEM('Edelstahl AISI 304',
'Edelstahl AISI 304');
#112=PROPERTY_DEFINITION('material property','material name',#203);
#113=PROPERTY_DEFINITION('material property','density of part',#203);
#114=DATE_TIME_ROLE('creation_date');
#115=APPLIED_DATE_AND_TIME_ASSIGNMENT(#116,#114,(#203));
#116=DATE_AND_TIME(#117,#118);
#117=CALENDAR_DATE(2021,16,4);
#118=LOCAL_TIME(0,0,0.,#119);
#119=COORDINATED_UNIVERSAL_TIME_OFFSET(0,0,.BEHIND.);
#120=AXIS2_PLACEMENT_3D('placement',#166,#134,#135);
#121=AXIS2_PLACEMENT_3D('',#167,#136,#137);
#122=AXIS2_PLACEMENT_3D('',#169,#138,#139);
#123=AXIS2_PLACEMENT_3D('',#172,#141,#142);
#124=AXIS2_PLACEMENT_3D('',#173,#143,#144);
#125=AXIS2_PLACEMENT_3D('',#175,#145,#146);
#126=AXIS2_PLACEMENT_3D('',#176,#147,#148);
#127=AXIS2_PLACEMENT_3D('',#179,#150,#151);
#128=AXIS2_PLACEMENT_3D('',#180,#152,#153);
#129=AXIS2_PLACEMENT_3D('',#184,#155,#156);
#130=AXIS2_PLACEMENT_3D('',#185,#157,#158);
#131=AXIS2_PLACEMENT_3D('',#186,#159,#160);
#132=AXIS2_PLACEMENT_3D('',#189,#162,#163);
#133=AXIS2_PLACEMENT_3D('',#190,#164,#165);
#134=DIRECTION('axis',(0.,0.,1.));
#135=DIRECTION('refdir',(1.,0.,0.));
#136=DIRECTION('center_axis',(0.,1.,0.));
#137=DIRECTION('ref_axis',(1.,0.,0.));
#138=DIRECTION('center_axis',(0.,1.,0.));
#139=DIRECTION('ref_axis',(1.,0.,0.));
#140=DIRECTION('',(0.707106781186548,-0.707106781186548,-8.65956056235493E-17));
#141=DIRECTION('center_axis',(0.,-1.,0.));
#142=DIRECTION('ref_axis',(1.,0.,0.));
#143=DIRECTION('center_axis',(0.,1.,0.));
#144=DIRECTION('ref_axis',(0.,0.,1.));
#145=DIRECTION('center_axis',(0.,-1.,0.));
#146=DIRECTION('ref_axis',(1.,0.,0.));
#147=DIRECTION('center_axis',(0.,1.,0.));
#148=DIRECTION('ref_axis',(1.,0.,0.));
#149=DIRECTION('',(0.,-1.,0.));
#150=DIRECTION('center_axis',(0.,-1.,0.));
#151=DIRECTION('ref_axis',(1.,0.,0.));
#152=DIRECTION('center_axis',(0.,-1.,0.));
#153=DIRECTION('ref_axis',(1.,0.,0.));
#154=DIRECTION('',(-0.707106781186548,-0.707106781186547,8.65956056235494E-17));
#155=DIRECTION('center_axis',(0.,1.,0.));
#156=DIRECTION('ref_axis',(1.,0.,0.));
#157=DIRECTION('center_axis',(0.,1.,0.));
#158=DIRECTION('ref_axis',(1.,0.,0.));
#159=DIRECTION('center_axis',(0.,1.,0.));
#160=DIRECTION('ref_axis',(-1.,0.,0.));
#161=DIRECTION('',(0.,-1.,0.));
#162=DIRECTION('center_axis',(0.,1.,0.));
#163=DIRECTION('ref_axis',(-1.,0.,0.));
#164=DIRECTION('center_axis',(0.,1.,0.));
#165=DIRECTION('ref_axis',(0.,0.,1.));
#166=CARTESIAN_POINT('',(0.,0.,0.));
#167=CARTESIAN_POINT('Origin',(0.,3.9,0.));
#168=CARTESIAN_POINT('',(-5.45,4.,6.67432505535308E-16));
#169=CARTESIAN_POINT('Origin',(0.,4.,0.));
#170=CARTESIAN_POINT('',(-5.25,3.8,-6.42939569552361E-16));
#171=CARTESIAN_POINT('',(-5.35,3.9,6.55186037543834E-16));
#172=CARTESIAN_POINT('Origin',(0.,3.8,0.));
#173=CARTESIAN_POINT('Origin',(0.,4.,0.));
#174=CARTESIAN_POINT('',(-28.,4.,-3.42901103761259E-15));
#175=CARTESIAN_POINT('Origin',(0.,4.,0.));
#176=CARTESIAN_POINT('Origin',(0.,0.,0.));
#177=CARTESIAN_POINT('',(-5.25,0.,6.42939569552361E-16));
#178=CARTESIAN_POINT('',(-5.25,0.,6.42939569552361E-16));
#179=CARTESIAN_POINT('Origin',(0.,0.,0.));
#180=CARTESIAN_POINT('Origin',(0.,3.,0.));
#181=CARTESIAN_POINT('',(-30.,2.,3.67394039744206E-15));
#182=CARTESIAN_POINT('',(-29.,3.,3.55147571752732E-15));
#183=CARTESIAN_POINT('',(30.,2.,-3.67394039744206E-15));
#184=CARTESIAN_POINT('Origin',(0.,2.,0.));
#185=CARTESIAN_POINT('Origin',(0.,2.,0.));
#186=CARTESIAN_POINT('Origin',(0.,0.,0.));
#187=CARTESIAN_POINT('',(30.,0.,-3.67394039744206E-15));
#188=CARTESIAN_POINT('',(30.,0.,-3.67394039744206E-15));
#189=CARTESIAN_POINT('Origin',(0.,0.,0.));
#190=CARTESIAN_POINT('Origin',(0.,0.,0.));
#191=UNCERTAINTY_MEASURE_WITH_UNIT(LENGTH_MEASURE(0.01),#195,
'DISTANCE_ACCURACY_VALUE',
'Maximum model space distance between geometric entities at asserted c
onnectivities');
#192=UNCERTAINTY_MEASURE_WITH_UNIT(LENGTH_MEASURE(0.01),#195,
'DISTANCE_ACCURACY_VALUE',
'Maximum model space distance between geometric entities at asserted c
onnectivities');
#193=(
GEOMETRIC_REPRESENTATION_CONTEXT(3)
GLOBAL_UNCERTAINTY_ASSIGNED_CONTEXT((#191))
GLOBAL_UNIT_ASSIGNED_CONTEXT((#195,#197,#198))
REPRESENTATION_CONTEXT('','3D')
);
#194=(
GEOMETRIC_REPRESENTATION_CONTEXT(3)
GLOBAL_UNCERTAINTY_ASSIGNED_CONTEXT((#192))
GLOBAL_UNIT_ASSIGNED_CONTEXT((#195,#197,#198))
REPRESENTATION_CONTEXT('','3D')
);
#195=(
LENGTH_UNIT()
NAMED_UNIT(*)
SI_UNIT(.MILLI.,.METRE.)
);
#196=(
LENGTH_UNIT()
NAMED_UNIT(*)
SI_UNIT(.CENTI.,.METRE.)
);
#197=(
NAMED_UNIT(*)
PLANE_ANGLE_UNIT()
SI_UNIT($,.RADIAN.)
);
#198=(
NAMED_UNIT(*)
SI_UNIT($,.STERADIAN.)
SOLID_ANGLE_UNIT()
);
#199=SHAPE_DEFINITION_REPRESENTATION(#200,#201);
#200=PRODUCT_DEFINITION_SHAPE('',$,#203);
#201=SHAPE_REPRESENTATION('',(#120),#193);
#202=PRODUCT_DEFINITION_CONTEXT('part definition',#207,'design');
#203=PRODUCT_DEFINITION('43184','43184',#204,#202);
#204=PRODUCT_DEFINITION_FORMATION('',$,#209);
#205=PRODUCT_RELATED_PRODUCT_CATEGORY('43184','43184',(#209));
#206=APPLICATION_PROTOCOL_DEFINITION('international standard',
'automotive_design',2009,#207);
#207=APPLICATION_CONTEXT(
'Core Data for Automotive Mechanical Design Process');
#208=PRODUCT_CONTEXT('part definition',#207,'mechanical');
#209=PRODUCT('43184','43184',$,(#208));
#210=PRESENTATION_STYLE_ASSIGNMENT((#211));
#211=SURFACE_STYLE_USAGE(.BOTH.,#214);
#212=SURFACE_STYLE_RENDERING_WITH_PROPERTIES($,#218,(#213));
#213=SURFACE_STYLE_TRANSPARENT(0.);
#214=SURFACE_SIDE_STYLE('',(#215,#212));
#215=SURFACE_STYLE_FILL_AREA(#216);
#216=FILL_AREA_STYLE('',(#217));
#217=FILL_AREA_STYLE_COLOUR('',#218);
#218=COLOUR_RGB('',0.956862745098039,0.956862745098039,0.956862745098039);
ENDSEC;
END-ISO-10303-21;
