ISO-10303-21;
HEADER;
/* Generated by software containing ST-Developer
 * from STEP Tools, Inc. (www.steptools.com) 
 */

FILE_DESCRIPTION(
/* description */ (''),
/* implementation_level */ '2;1');

FILE_NAME(
/* name */ 
'C:\\Users\\O.Boryczka\\Desktop\\Korrigierte Zeichnungen\\Wandanschl\X\FC
sse V2A\\IPT_Daten\\43204.ipt.step',
/* time_stamp */ '2022-07-18T12:58:48+02:00',
/* author */ ('Abt. Technik'),
/* organization */ (''),
/* preprocessor_version */ 'ST-DEVELOPER v18.1',
/* originating_system */ 'Autodesk Inventor 2022',
/* authorisation */ '');

FILE_SCHEMA (('AUTOMOTIVE_DESIGN { 1 0 10303 214 3 1 1 }'));
ENDSEC;

DATA;
#10=MECHANICAL_DESIGN_GEOMETRIC_PRESENTATION_REPRESENTATION('',(#13),#566);
#11=SHAPE_REPRESENTATION_RELATIONSHIP('SRR','None',#573,#12);
#12=ADVANCED_BREP_SHAPE_REPRESENTATION('',(#14),#565);
#13=STYLED_ITEM('',(#582),#14);
#14=MANIFOLD_SOLID_BREP('Volumenk\X\F6rper1',#275);
#15=CONICAL_SURFACE('',#321,4.25,0.785398163397449);
#16=CONICAL_SURFACE('',#325,4.25,0.785398163397448);
#17=CONICAL_SURFACE('',#329,4.25,0.785398163397449);
#18=B_SPLINE_CURVE_WITH_KNOTS('',3,(#452,#453,#454,#455,#456,#457,#458,
#459,#460,#461,#462,#463,#464,#465,#466,#467,#468,#469),.UNSPECIFIED.,.F.,
 .F.,(4,2,2,2,2,2,2,2,4),(0.301555269648901,0.376943970877707,0.452332672106513,
0.527721605702157,0.603110539297802,0.678499472893447,0.753888406489091,
0.829277107717897,0.904665808946703),.UNSPECIFIED.);
#19=B_SPLINE_CURVE_WITH_KNOTS('',3,(#471,#472,#473,#474,#475,#476,#477,
#478,#479,#480),.UNSPECIFIED.,.F.,.F.,(4,2,2,2,4),(0.904665808946703,0.980054510175509,
1.05544321140431,1.13083214499996,1.2062210785956),.UNSPECIFIED.);
#20=B_SPLINE_CURVE_WITH_KNOTS('',3,(#481,#482,#483,#484,#485,#486,#487,
#488,#489,#490),.UNSPECIFIED.,.F.,.F.,(4,2,2,2,4),(1.2062210785956,1.28161001219125,
1.35699894578689,1.4323876470157,1.50777634824451),.UNSPECIFIED.);
#21=B_SPLINE_CURVE_WITH_KNOTS('',3,(#498,#499,#500,#501,#502,#503,#504,
#505,#506,#507,#508,#509,#510,#511,#512,#513,#514,#515),.UNSPECIFIED.,.F.,
 .F.,(4,2,2,2,2,2,2,2,4),(0.,0.0754139597006449,0.15082791940129,0.226241367653721,
0.301654815906151,0.377068264158582,0.452481712411013,0.527895672111658,
0.603309631812303),.UNSPECIFIED.);
#22=B_SPLINE_CURVE_WITH_KNOTS('',3,(#516,#517,#518,#519,#520,#521,#522,
#523,#524,#525,#526,#527,#528,#529,#530,#531,#532,#533),.UNSPECIFIED.,.F.,
 .F.,(4,2,2,2,2,2,2,2,4),(0.603309631812303,0.678723591512948,0.754137551213593,
0.829550999466024,0.904964447718454,0.980377895970885,1.05579134422332,
1.13120530392396,1.20661926362461),.UNSPECIFIED.);
#23=LINE('',#438,#33);
#24=LINE('',#449,#34);
#25=LINE('',#496,#35);
#26=LINE('',#536,#36);
#27=LINE('',#540,#37);
#28=LINE('',#544,#38);
#29=LINE('',#548,#39);
#30=LINE('',#552,#40);
#31=LINE('',#556,#41);
#32=LINE('',#560,#42);
#33=VECTOR('',#358,38.5);
#34=VECTOR('',#373,20.5);
#35=VECTOR('',#380,2.);
#36=VECTOR('',#383,16.85);
#37=VECTOR('',#388,4.25);
#38=VECTOR('',#393,3.25);
#39=VECTOR('',#398,4.25);
#40=VECTOR('',#403,3.25);
#41=VECTOR('',#408,4.25);
#42=VECTOR('',#413,3.25);
#43=CYLINDRICAL_SURFACE('',#308,38.5);
#44=CYLINDRICAL_SURFACE('',#315,20.5);
#45=CYLINDRICAL_SURFACE('',#318,2.);
#46=CYLINDRICAL_SURFACE('',#319,16.85);
#47=CYLINDRICAL_SURFACE('',#323,3.25);
#48=CYLINDRICAL_SURFACE('',#327,3.25);
#49=CYLINDRICAL_SURFACE('',#331,3.25);
#50=FACE_BOUND('',#81,.T.);
#51=FACE_BOUND('',#82,.T.);
#52=FACE_BOUND('',#83,.T.);
#53=FACE_BOUND('',#84,.T.);
#54=FACE_BOUND('',#88,.T.);
#55=FACE_BOUND('',#90,.T.);
#56=FACE_BOUND('',#93,.T.);
#57=FACE_BOUND('',#101,.T.);
#58=FACE_BOUND('',#102,.T.);
#59=FACE_BOUND('',#103,.T.);
#60=FACE_BOUND('',#104,.T.);
#61=PLANE('',#303);
#62=PLANE('',#316);
#63=PLANE('',#333);
#64=FACE_OUTER_BOUND('',#79,.T.);
#65=FACE_OUTER_BOUND('',#80,.T.);
#66=FACE_OUTER_BOUND('',#85,.T.);
#67=FACE_OUTER_BOUND('',#86,.T.);
#68=FACE_OUTER_BOUND('',#87,.T.);
#69=FACE_OUTER_BOUND('',#89,.T.);
#70=FACE_OUTER_BOUND('',#91,.T.);
#71=FACE_OUTER_BOUND('',#92,.T.);
#72=FACE_OUTER_BOUND('',#94,.T.);
#73=FACE_OUTER_BOUND('',#95,.T.);
#74=FACE_OUTER_BOUND('',#96,.T.);
#75=FACE_OUTER_BOUND('',#97,.T.);
#76=FACE_OUTER_BOUND('',#98,.T.);
#77=FACE_OUTER_BOUND('',#99,.T.);
#78=FACE_OUTER_BOUND('',#100,.T.);
#79=EDGE_LOOP('',(#186,#187,#188,#189,#190));
#80=EDGE_LOOP('',(#191));
#81=EDGE_LOOP('',(#192));
#82=EDGE_LOOP('',(#193));
#83=EDGE_LOOP('',(#194));
#84=EDGE_LOOP('',(#195));
#85=EDGE_LOOP('',(#196,#197,#198,#199,#200));
#86=EDGE_LOOP('',(#201,#202,#203,#204,#205));
#87=EDGE_LOOP('',(#206,#207,#208,#209,#210));
#88=EDGE_LOOP('',(#211,#212,#213));
#89=EDGE_LOOP('',(#214));
#90=EDGE_LOOP('',(#215));
#91=EDGE_LOOP('',(#216,#217,#218,#219,#220,#221,#222));
#92=EDGE_LOOP('',(#223,#224,#225,#226));
#93=EDGE_LOOP('',(#227,#228));
#94=EDGE_LOOP('',(#229,#230,#231,#232));
#95=EDGE_LOOP('',(#233,#234,#235,#236));
#96=EDGE_LOOP('',(#237,#238,#239,#240));
#97=EDGE_LOOP('',(#241,#242,#243,#244));
#98=EDGE_LOOP('',(#245,#246,#247,#248));
#99=EDGE_LOOP('',(#249,#250,#251,#252));
#100=EDGE_LOOP('',(#253));
#101=EDGE_LOOP('',(#254));
#102=EDGE_LOOP('',(#255));
#103=EDGE_LOOP('',(#256));
#104=EDGE_LOOP('',(#257));
#105=CIRCLE('',#299,37.5);
#106=CIRCLE('',#300,1.);
#107=CIRCLE('',#301,38.5);
#108=CIRCLE('',#302,38.5);
#109=CIRCLE('',#304,5.25);
#110=CIRCLE('',#305,5.25);
#111=CIRCLE('',#306,5.25);
#112=CIRCLE('',#307,20.5);
#113=CIRCLE('',#309,38.5);
#114=CIRCLE('',#311,19.5);
#115=CIRCLE('',#312,1.);
#116=CIRCLE('',#313,20.5);
#117=CIRCLE('',#314,20.5);
#118=CIRCLE('',#317,16.85);
#119=CIRCLE('',#320,16.85);
#120=CIRCLE('',#322,3.25);
#121=CIRCLE('',#324,3.25);
#122=CIRCLE('',#326,3.25);
#123=CIRCLE('',#328,3.25);
#124=CIRCLE('',#330,3.25);
#125=CIRCLE('',#332,3.25);
#126=VERTEX_POINT('',#420);
#127=VERTEX_POINT('',#422);
#128=VERTEX_POINT('',#424);
#129=VERTEX_POINT('',#428);
#130=VERTEX_POINT('',#430);
#131=VERTEX_POINT('',#432);
#132=VERTEX_POINT('',#434);
#133=VERTEX_POINT('',#437);
#134=VERTEX_POINT('',#441);
#135=VERTEX_POINT('',#443);
#136=VERTEX_POINT('',#445);
#137=VERTEX_POINT('',#450);
#138=VERTEX_POINT('',#451);
#139=VERTEX_POINT('',#470);
#140=VERTEX_POINT('',#492);
#141=VERTEX_POINT('',#495);
#142=VERTEX_POINT('',#497);
#143=VERTEX_POINT('',#535);
#144=VERTEX_POINT('',#539);
#145=VERTEX_POINT('',#543);
#146=VERTEX_POINT('',#547);
#147=VERTEX_POINT('',#551);
#148=VERTEX_POINT('',#555);
#149=VERTEX_POINT('',#559);
#150=EDGE_CURVE('',#126,#126,#105,.T.);
#151=EDGE_CURVE('',#126,#127,#106,.T.);
#152=EDGE_CURVE('',#127,#128,#107,.T.);
#153=EDGE_CURVE('',#128,#127,#108,.T.);
#154=EDGE_CURVE('',#129,#129,#109,.T.);
#155=EDGE_CURVE('',#130,#130,#110,.T.);
#156=EDGE_CURVE('',#131,#131,#111,.T.);
#157=EDGE_CURVE('',#132,#132,#112,.T.);
#158=EDGE_CURVE('',#128,#133,#23,.T.);
#159=EDGE_CURVE('',#133,#133,#113,.T.);
#160=EDGE_CURVE('',#134,#134,#114,.T.);
#161=EDGE_CURVE('',#134,#135,#115,.T.);
#162=EDGE_CURVE('',#135,#136,#116,.T.);
#163=EDGE_CURVE('',#136,#135,#117,.T.);
#164=EDGE_CURVE('',#136,#132,#24,.T.);
#165=EDGE_CURVE('',#137,#138,#18,.T.);
#166=EDGE_CURVE('',#138,#139,#19,.T.);
#167=EDGE_CURVE('',#139,#137,#20,.T.);
#168=EDGE_CURVE('',#140,#140,#118,.T.);
#169=EDGE_CURVE('',#139,#141,#25,.T.);
#170=EDGE_CURVE('',#142,#141,#21,.T.);
#171=EDGE_CURVE('',#141,#142,#22,.T.);
#172=EDGE_CURVE('',#140,#143,#26,.T.);
#173=EDGE_CURVE('',#143,#143,#119,.T.);
#174=EDGE_CURVE('',#129,#144,#27,.T.);
#175=EDGE_CURVE('',#144,#144,#120,.T.);
#176=EDGE_CURVE('',#144,#145,#28,.T.);
#177=EDGE_CURVE('',#145,#145,#121,.T.);
#178=EDGE_CURVE('',#131,#146,#29,.T.);
#179=EDGE_CURVE('',#146,#146,#122,.T.);
#180=EDGE_CURVE('',#146,#147,#30,.T.);
#181=EDGE_CURVE('',#147,#147,#123,.T.);
#182=EDGE_CURVE('',#130,#148,#31,.T.);
#183=EDGE_CURVE('',#148,#148,#124,.T.);
#184=EDGE_CURVE('',#148,#149,#32,.T.);
#185=EDGE_CURVE('',#149,#149,#125,.T.);
#186=ORIENTED_EDGE('',*,*,#150,.T.);
#187=ORIENTED_EDGE('',*,*,#151,.T.);
#188=ORIENTED_EDGE('',*,*,#152,.T.);
#189=ORIENTED_EDGE('',*,*,#153,.T.);
#190=ORIENTED_EDGE('',*,*,#151,.F.);
#191=ORIENTED_EDGE('',*,*,#150,.F.);
#192=ORIENTED_EDGE('',*,*,#154,.F.);
#193=ORIENTED_EDGE('',*,*,#155,.F.);
#194=ORIENTED_EDGE('',*,*,#156,.F.);
#195=ORIENTED_EDGE('',*,*,#157,.T.);
#196=ORIENTED_EDGE('',*,*,#152,.F.);
#197=ORIENTED_EDGE('',*,*,#153,.F.);
#198=ORIENTED_EDGE('',*,*,#158,.T.);
#199=ORIENTED_EDGE('',*,*,#159,.T.);
#200=ORIENTED_EDGE('',*,*,#158,.F.);
#201=ORIENTED_EDGE('',*,*,#160,.T.);
#202=ORIENTED_EDGE('',*,*,#161,.T.);
#203=ORIENTED_EDGE('',*,*,#162,.T.);
#204=ORIENTED_EDGE('',*,*,#163,.T.);
#205=ORIENTED_EDGE('',*,*,#161,.F.);
#206=ORIENTED_EDGE('',*,*,#163,.F.);
#207=ORIENTED_EDGE('',*,*,#164,.T.);
#208=ORIENTED_EDGE('',*,*,#157,.F.);
#209=ORIENTED_EDGE('',*,*,#164,.F.);
#210=ORIENTED_EDGE('',*,*,#162,.F.);
#211=ORIENTED_EDGE('',*,*,#165,.T.);
#212=ORIENTED_EDGE('',*,*,#166,.T.);
#213=ORIENTED_EDGE('',*,*,#167,.T.);
#214=ORIENTED_EDGE('',*,*,#160,.F.);
#215=ORIENTED_EDGE('',*,*,#168,.T.);
#216=ORIENTED_EDGE('',*,*,#165,.F.);
#217=ORIENTED_EDGE('',*,*,#167,.F.);
#218=ORIENTED_EDGE('',*,*,#169,.T.);
#219=ORIENTED_EDGE('',*,*,#170,.F.);
#220=ORIENTED_EDGE('',*,*,#171,.F.);
#221=ORIENTED_EDGE('',*,*,#169,.F.);
#222=ORIENTED_EDGE('',*,*,#166,.F.);
#223=ORIENTED_EDGE('',*,*,#168,.F.);
#224=ORIENTED_EDGE('',*,*,#172,.T.);
#225=ORIENTED_EDGE('',*,*,#173,.F.);
#226=ORIENTED_EDGE('',*,*,#172,.F.);
#227=ORIENTED_EDGE('',*,*,#170,.T.);
#228=ORIENTED_EDGE('',*,*,#171,.T.);
#229=ORIENTED_EDGE('',*,*,#154,.T.);
#230=ORIENTED_EDGE('',*,*,#174,.T.);
#231=ORIENTED_EDGE('',*,*,#175,.T.);
#232=ORIENTED_EDGE('',*,*,#174,.F.);
#233=ORIENTED_EDGE('',*,*,#175,.F.);
#234=ORIENTED_EDGE('',*,*,#176,.T.);
#235=ORIENTED_EDGE('',*,*,#177,.T.);
#236=ORIENTED_EDGE('',*,*,#176,.F.);
#237=ORIENTED_EDGE('',*,*,#156,.T.);
#238=ORIENTED_EDGE('',*,*,#178,.T.);
#239=ORIENTED_EDGE('',*,*,#179,.T.);
#240=ORIENTED_EDGE('',*,*,#178,.F.);
#241=ORIENTED_EDGE('',*,*,#179,.F.);
#242=ORIENTED_EDGE('',*,*,#180,.T.);
#243=ORIENTED_EDGE('',*,*,#181,.T.);
#244=ORIENTED_EDGE('',*,*,#180,.F.);
#245=ORIENTED_EDGE('',*,*,#155,.T.);
#246=ORIENTED_EDGE('',*,*,#182,.T.);
#247=ORIENTED_EDGE('',*,*,#183,.T.);
#248=ORIENTED_EDGE('',*,*,#182,.F.);
#249=ORIENTED_EDGE('',*,*,#183,.F.);
#250=ORIENTED_EDGE('',*,*,#184,.T.);
#251=ORIENTED_EDGE('',*,*,#185,.T.);
#252=ORIENTED_EDGE('',*,*,#184,.F.);
#253=ORIENTED_EDGE('',*,*,#159,.F.);
#254=ORIENTED_EDGE('',*,*,#173,.T.);
#255=ORIENTED_EDGE('',*,*,#181,.F.);
#256=ORIENTED_EDGE('',*,*,#185,.F.);
#257=ORIENTED_EDGE('',*,*,#177,.F.);
#258=TOROIDAL_SURFACE('',#298,37.5,1.);
#259=TOROIDAL_SURFACE('',#310,19.5,1.);
#260=ADVANCED_FACE('',(#64),#258,.T.);
#261=ADVANCED_FACE('',(#65,#50,#51,#52,#53),#61,.T.);
#262=ADVANCED_FACE('',(#66),#43,.T.);
#263=ADVANCED_FACE('',(#67),#259,.T.);
#264=ADVANCED_FACE('',(#68,#54),#44,.T.);
#265=ADVANCED_FACE('',(#69,#55),#62,.T.);
#266=ADVANCED_FACE('',(#70),#45,.F.);
#267=ADVANCED_FACE('',(#71,#56),#46,.F.);
#268=ADVANCED_FACE('',(#72),#15,.F.);
#269=ADVANCED_FACE('',(#73),#47,.F.);
#270=ADVANCED_FACE('',(#74),#16,.F.);
#271=ADVANCED_FACE('',(#75),#48,.F.);
#272=ADVANCED_FACE('',(#76),#17,.F.);
#273=ADVANCED_FACE('',(#77),#49,.F.);
#274=ADVANCED_FACE('',(#78,#57,#58,#59,#60),#63,.F.);
#275=CLOSED_SHELL('',(#260,#261,#262,#263,#264,#265,#266,#267,#268,#269,
#270,#271,#272,#273,#274));
#276=DERIVED_UNIT_ELEMENT(#279,1.);
#277=DERIVED_UNIT_ELEMENT(#568,-3.);
#278=DIMENSIONAL_EXPONENTS(1.,0.,0.,0.,0.,0.,0.);
#279=(
CONVERSION_BASED_UNIT('gram',#281)
MASS_UNIT()
NAMED_UNIT(#278)
);
#280=(
MASS_UNIT()
NAMED_UNIT(*)
SI_UNIT(.KILO.,.GRAM.)
);
#281=MASS_MEASURE_WITH_UNIT(MASS_MEASURE(0.001),#280);
#282=DERIVED_UNIT((#276,#277));
#283=MEASURE_REPRESENTATION_ITEM('density measure',
POSITIVE_RATIO_MEASURE(8.),#282);
#284=PROPERTY_DEFINITION_REPRESENTATION(#289,#286);
#285=PROPERTY_DEFINITION_REPRESENTATION(#290,#287);
#286=REPRESENTATION('material name',(#288),#565);
#287=REPRESENTATION('density',(#283),#565);
#288=DESCRIPTIVE_REPRESENTATION_ITEM('Edelstahl AISI 304',
'Edelstahl AISI 304');
#289=PROPERTY_DEFINITION('material property','material name',#575);
#290=PROPERTY_DEFINITION('material property','density of part',#575);
#291=DATE_TIME_ROLE('creation_date');
#292=APPLIED_DATE_AND_TIME_ASSIGNMENT(#293,#291,(#575));
#293=DATE_AND_TIME(#294,#295);
#294=CALENDAR_DATE(2021,17,6);
#295=LOCAL_TIME(0,0,0.,#296);
#296=COORDINATED_UNIVERSAL_TIME_OFFSET(0,0,.BEHIND.);
#297=AXIS2_PLACEMENT_3D('placement',#418,#334,#335);
#298=AXIS2_PLACEMENT_3D('',#419,#336,#337);
#299=AXIS2_PLACEMENT_3D('',#421,#338,#339);
#300=AXIS2_PLACEMENT_3D('',#423,#340,#341);
#301=AXIS2_PLACEMENT_3D('',#425,#342,#343);
#302=AXIS2_PLACEMENT_3D('',#426,#344,#345);
#303=AXIS2_PLACEMENT_3D('',#427,#346,#347);
#304=AXIS2_PLACEMENT_3D('',#429,#348,#349);
#305=AXIS2_PLACEMENT_3D('',#431,#350,#351);
#306=AXIS2_PLACEMENT_3D('',#433,#352,#353);
#307=AXIS2_PLACEMENT_3D('',#435,#354,#355);
#308=AXIS2_PLACEMENT_3D('',#436,#356,#357);
#309=AXIS2_PLACEMENT_3D('',#439,#359,#360);
#310=AXIS2_PLACEMENT_3D('',#440,#361,#362);
#311=AXIS2_PLACEMENT_3D('',#442,#363,#364);
#312=AXIS2_PLACEMENT_3D('',#444,#365,#366);
#313=AXIS2_PLACEMENT_3D('',#446,#367,#368);
#314=AXIS2_PLACEMENT_3D('',#447,#369,#370);
#315=AXIS2_PLACEMENT_3D('',#448,#371,#372);
#316=AXIS2_PLACEMENT_3D('',#491,#374,#375);
#317=AXIS2_PLACEMENT_3D('',#493,#376,#377);
#318=AXIS2_PLACEMENT_3D('',#494,#378,#379);
#319=AXIS2_PLACEMENT_3D('',#534,#381,#382);
#320=AXIS2_PLACEMENT_3D('',#537,#384,#385);
#321=AXIS2_PLACEMENT_3D('',#538,#386,#387);
#322=AXIS2_PLACEMENT_3D('',#541,#389,#390);
#323=AXIS2_PLACEMENT_3D('',#542,#391,#392);
#324=AXIS2_PLACEMENT_3D('',#545,#394,#395);
#325=AXIS2_PLACEMENT_3D('',#546,#396,#397);
#326=AXIS2_PLACEMENT_3D('',#549,#399,#400);
#327=AXIS2_PLACEMENT_3D('',#550,#401,#402);
#328=AXIS2_PLACEMENT_3D('',#553,#404,#405);
#329=AXIS2_PLACEMENT_3D('',#554,#406,#407);
#330=AXIS2_PLACEMENT_3D('',#557,#409,#410);
#331=AXIS2_PLACEMENT_3D('',#558,#411,#412);
#332=AXIS2_PLACEMENT_3D('',#561,#414,#415);
#333=AXIS2_PLACEMENT_3D('',#562,#416,#417);
#334=DIRECTION('axis',(0.,0.,1.));
#335=DIRECTION('refdir',(1.,0.,0.));
#336=DIRECTION('center_axis',(0.,1.,0.));
#337=DIRECTION('ref_axis',(0.,0.,1.));
#338=DIRECTION('center_axis',(0.,-1.,0.));
#339=DIRECTION('ref_axis',(1.,0.,1.22464679914735E-16));
#340=DIRECTION('center_axis',(-1.,0.,1.22464679914735E-16));
#341=DIRECTION('ref_axis',(-1.22464679914735E-16,0.,-1.));
#342=DIRECTION('center_axis',(0.,1.,0.));
#343=DIRECTION('ref_axis',(1.,0.,1.22464679914735E-16));
#344=DIRECTION('center_axis',(0.,1.,0.));
#345=DIRECTION('ref_axis',(1.,0.,1.22464679914735E-16));
#346=DIRECTION('center_axis',(0.,1.,0.));
#347=DIRECTION('ref_axis',(0.,0.,1.));
#348=DIRECTION('center_axis',(0.,1.,0.));
#349=DIRECTION('ref_axis',(1.,0.,0.));
#350=DIRECTION('center_axis',(0.,1.,0.));
#351=DIRECTION('ref_axis',(1.,0.,0.));
#352=DIRECTION('center_axis',(0.,1.,0.));
#353=DIRECTION('ref_axis',(1.,0.,0.));
#354=DIRECTION('center_axis',(0.,-1.,0.));
#355=DIRECTION('ref_axis',(1.,0.,0.));
#356=DIRECTION('center_axis',(0.,1.,0.));
#357=DIRECTION('ref_axis',(-1.,0.,0.));
#358=DIRECTION('',(0.,-1.,0.));
#359=DIRECTION('center_axis',(0.,1.,0.));
#360=DIRECTION('ref_axis',(-1.,0.,0.));
#361=DIRECTION('center_axis',(0.,1.,0.));
#362=DIRECTION('ref_axis',(0.,0.,1.));
#363=DIRECTION('center_axis',(0.,-1.,0.));
#364=DIRECTION('ref_axis',(-1.,0.,-1.22464679914735E-16));
#365=DIRECTION('center_axis',(-1.,0.,1.22464679914735E-16));
#366=DIRECTION('ref_axis',(-1.22464679914735E-16,0.,-1.));
#367=DIRECTION('center_axis',(0.,1.,0.));
#368=DIRECTION('ref_axis',(-1.,0.,-1.22464679914735E-16));
#369=DIRECTION('center_axis',(0.,1.,0.));
#370=DIRECTION('ref_axis',(-1.,0.,-1.22464679914735E-16));
#371=DIRECTION('center_axis',(0.,1.,0.));
#372=DIRECTION('ref_axis',(1.,0.,0.));
#373=DIRECTION('',(0.,-1.,0.));
#374=DIRECTION('center_axis',(0.,1.,0.));
#375=DIRECTION('ref_axis',(0.,0.,1.));
#376=DIRECTION('center_axis',(0.,-1.,0.));
#377=DIRECTION('ref_axis',(-1.,0.,0.));
#378=DIRECTION('center_axis',(0.,0.,-1.));
#379=DIRECTION('ref_axis',(1.,0.,0.));
#380=DIRECTION('',(0.,0.,-1.));
#381=DIRECTION('center_axis',(0.,-1.,0.));
#382=DIRECTION('ref_axis',(1.,0.,0.));
#383=DIRECTION('',(0.,-1.,0.));
#384=DIRECTION('center_axis',(0.,1.,0.));
#385=DIRECTION('ref_axis',(1.,0.,0.));
#386=DIRECTION('center_axis',(0.,1.,0.));
#387=DIRECTION('ref_axis',(1.,0.,0.));
#388=DIRECTION('',(0.707106781186548,-0.707106781186547,-8.65956056235494E-17));
#389=DIRECTION('center_axis',(0.,-1.,0.));
#390=DIRECTION('ref_axis',(1.,0.,0.));
#391=DIRECTION('center_axis',(0.,1.,0.));
#392=DIRECTION('ref_axis',(1.,0.,0.));
#393=DIRECTION('',(0.,-1.,0.));
#394=DIRECTION('center_axis',(0.,-1.,0.));
#395=DIRECTION('ref_axis',(1.,0.,0.));
#396=DIRECTION('center_axis',(0.,1.,0.));
#397=DIRECTION('ref_axis',(1.,0.,0.));
#398=DIRECTION('',(0.707106781186547,-0.707106781186548,-8.65956056235493E-17));
#399=DIRECTION('center_axis',(0.,-1.,0.));
#400=DIRECTION('ref_axis',(1.,0.,0.));
#401=DIRECTION('center_axis',(0.,1.,0.));
#402=DIRECTION('ref_axis',(1.,0.,0.));
#403=DIRECTION('',(0.,-1.,0.));
#404=DIRECTION('center_axis',(0.,-1.,0.));
#405=DIRECTION('ref_axis',(1.,0.,0.));
#406=DIRECTION('center_axis',(0.,1.,0.));
#407=DIRECTION('ref_axis',(1.,0.,0.));
#408=DIRECTION('',(0.707106781186548,-0.707106781186547,-8.65956056235494E-17));
#409=DIRECTION('center_axis',(0.,-1.,0.));
#410=DIRECTION('ref_axis',(1.,0.,0.));
#411=DIRECTION('center_axis',(0.,1.,0.));
#412=DIRECTION('ref_axis',(1.,0.,0.));
#413=DIRECTION('',(0.,-1.,0.));
#414=DIRECTION('center_axis',(0.,-1.,0.));
#415=DIRECTION('ref_axis',(1.,0.,0.));
#416=DIRECTION('center_axis',(0.,1.,0.));
#417=DIRECTION('ref_axis',(0.,0.,1.));
#418=CARTESIAN_POINT('',(0.,0.,0.));
#419=CARTESIAN_POINT('Origin',(0.,4.,0.));
#420=CARTESIAN_POINT('',(-4.59242549680257E-15,5.,-37.5));
#421=CARTESIAN_POINT('Origin',(0.,5.,0.));
#422=CARTESIAN_POINT('',(-4.71489017671731E-15,4.,-38.5));
#423=CARTESIAN_POINT('Origin',(-4.59242549680257E-15,4.,-37.5));
#424=CARTESIAN_POINT('',(38.5,4.,-4.71489017671731E-15));
#425=CARTESIAN_POINT('Origin',(0.,4.,0.));
#426=CARTESIAN_POINT('Origin',(0.,4.,0.));
#427=CARTESIAN_POINT('Origin',(0.,5.,0.));
#428=CARTESIAN_POINT('',(22.0298002192098,5.,-15.75));
#429=CARTESIAN_POINT('Origin',(27.2798002192098,5.,-15.75));
#430=CARTESIAN_POINT('',(-32.5298002192098,5.,-15.75));
#431=CARTESIAN_POINT('Origin',(-27.2798002192098,5.,-15.75));
#432=CARTESIAN_POINT('',(-5.25,5.,31.5));
#433=CARTESIAN_POINT('Origin',(0.,5.,31.5));
#434=CARTESIAN_POINT('',(-20.5,5.,2.51052593825208E-15));
#435=CARTESIAN_POINT('Origin',(0.,5.,0.));
#436=CARTESIAN_POINT('Origin',(0.,0.,0.));
#437=CARTESIAN_POINT('',(38.5,0.,-4.71489017671731E-15));
#438=CARTESIAN_POINT('',(38.5,0.,-4.71489017671731E-15));
#439=CARTESIAN_POINT('Origin',(0.,0.,0.));
#440=CARTESIAN_POINT('Origin',(0.,24.,0.));
#441=CARTESIAN_POINT('',(-2.38806125833734E-15,25.,-19.5));
#442=CARTESIAN_POINT('Origin',(0.,25.,0.));
#443=CARTESIAN_POINT('',(-2.51052593825208E-15,24.,-20.5));
#444=CARTESIAN_POINT('Origin',(-2.38806125833734E-15,24.,-19.5));
#445=CARTESIAN_POINT('',(-20.5,24.,2.51052593825208E-15));
#446=CARTESIAN_POINT('Origin',(0.,24.,0.));
#447=CARTESIAN_POINT('Origin',(0.,24.,0.));
#448=CARTESIAN_POINT('Origin',(0.,5.,0.));
#449=CARTESIAN_POINT('',(-20.5,5.,2.51052593825208E-15));
#450=CARTESIAN_POINT('',(2.09541177949331E-29,17.,20.5));
#451=CARTESIAN_POINT('',(2.09541177949331E-29,13.,20.5));
#452=CARTESIAN_POINT('Ctrl Pts',(4.85722573273506E-16,17.,20.5));
#453=CARTESIAN_POINT('Ctrl Pts',(0.251295670762686,17.,20.5));
#454=CARTESIAN_POINT('Ctrl Pts',(0.51923272238697,16.9497457949611,20.4949060349798));
#455=CARTESIAN_POINT('Ctrl Pts',(1.01194455889485,16.745588578717,20.4764924782915));
#456=CARTESIAN_POINT('Ctrl Pts',(1.23673273357056,16.5916943911756,20.463434272264));
#457=CARTESIAN_POINT('Ctrl Pts',(1.59169493821595,16.2367321865302,20.4388883623429));
#458=CARTESIAN_POINT('Ctrl Pts',(1.7455886991759,16.0119442519267,20.4258029320959));
#459=CARTESIAN_POINT('Ctrl Pts',(1.94974559614466,15.5192332184626,20.4073270538093));
#460=CARTESIAN_POINT('Ctrl Pts',(2.,15.2512964453188,20.4022057631032));
#461=CARTESIAN_POINT('Ctrl Pts',(2.,14.7487035546812,20.4022057631032));
#462=CARTESIAN_POINT('Ctrl Pts',(1.94974559614467,14.4807667815374,20.4073270538093));
#463=CARTESIAN_POINT('Ctrl Pts',(1.74558869917591,13.9880557480733,20.4258029320959));
#464=CARTESIAN_POINT('Ctrl Pts',(1.59169493821595,13.7632678134698,20.4388883623429));
#465=CARTESIAN_POINT('Ctrl Pts',(1.23673273357056,13.4083056088244,20.463434272264));
#466=CARTESIAN_POINT('Ctrl Pts',(1.01194455889485,13.2544114212831,20.4764924782915));
#467=CARTESIAN_POINT('Ctrl Pts',(0.51923272238697,13.0502542050389,20.4949060349798));
#468=CARTESIAN_POINT('Ctrl Pts',(0.251295670762688,13.,20.5));
#469=CARTESIAN_POINT('Ctrl Pts',(1.87350135405495E-15,13.,20.5));
#470=CARTESIAN_POINT('',(-2.,15.,20.4022057631032));
#471=CARTESIAN_POINT('Ctrl Pts',(2.0122792321331E-15,13.,20.5));
#472=CARTESIAN_POINT('Ctrl Pts',(-0.251295670762684,13.,20.5));
#473=CARTESIAN_POINT('Ctrl Pts',(-0.519232722386966,13.0502542050389,20.4949060349798));
#474=CARTESIAN_POINT('Ctrl Pts',(-1.01194455889484,13.254411421283,20.4764924782915));
#475=CARTESIAN_POINT('Ctrl Pts',(-1.23673273357056,13.4083056088244,20.463434272264));
#476=CARTESIAN_POINT('Ctrl Pts',(-1.59169493821595,13.7632678134698,20.4388883623429));
#477=CARTESIAN_POINT('Ctrl Pts',(-1.7455886991759,13.9880557480733,20.4258029320959));
#478=CARTESIAN_POINT('Ctrl Pts',(-1.94974559614466,14.4807667815374,20.4073270538093));
#479=CARTESIAN_POINT('Ctrl Pts',(-2.,14.7487035546812,20.4022057631032));
#480=CARTESIAN_POINT('Ctrl Pts',(-2.,15.,20.4022057631032));
#481=CARTESIAN_POINT('Ctrl Pts',(-2.,15.,20.4022057631032));
#482=CARTESIAN_POINT('Ctrl Pts',(-2.,15.2512964453188,20.4022057631032));
#483=CARTESIAN_POINT('Ctrl Pts',(-1.94974559614466,15.5192332184626,20.4073270538093));
#484=CARTESIAN_POINT('Ctrl Pts',(-1.7455886991759,16.0119442519267,20.4258029320959));
#485=CARTESIAN_POINT('Ctrl Pts',(-1.59169493821595,16.2367321865302,20.4388883623429));
#486=CARTESIAN_POINT('Ctrl Pts',(-1.23673273357056,16.5916943911756,20.463434272264));
#487=CARTESIAN_POINT('Ctrl Pts',(-1.01194455889484,16.745588578717,20.4764924782915));
#488=CARTESIAN_POINT('Ctrl Pts',(-0.519232722386968,16.9497457949611,20.4949060349798));
#489=CARTESIAN_POINT('Ctrl Pts',(-0.251295670762685,17.,20.5));
#490=CARTESIAN_POINT('Ctrl Pts',(6.24500451351651E-16,17.,20.5));
#491=CARTESIAN_POINT('Origin',(0.,25.,0.));
#492=CARTESIAN_POINT('',(-16.85,25.,-2.06352985656329E-15));
#493=CARTESIAN_POINT('Origin',(0.,25.,0.));
#494=CARTESIAN_POINT('Origin',(1.25526296912604E-15,15.,20.5));
#495=CARTESIAN_POINT('',(-2.,15.,16.7308846149867));
#496=CARTESIAN_POINT('',(-2.,15.,20.5));
#497=CARTESIAN_POINT('',(2.,15.,16.7308846149867));
#498=CARTESIAN_POINT('Ctrl Pts',(2.,15.,16.7308846149867));
#499=CARTESIAN_POINT('Ctrl Pts',(2.,15.2513798656688,16.7308846149867));
#500=CARTESIAN_POINT('Ctrl Pts',(1.94971310324267,15.5193519938689,16.7371344058897));
#501=CARTESIAN_POINT('Ctrl Pts',(1.74553244245266,16.0120396467701,16.7596588787969));
#502=CARTESIAN_POINT('Ctrl Pts',(1.5916515557512,16.236775568995,16.7756029078076));
#503=CARTESIAN_POINT('Ctrl Pts',(1.23677677235768,16.5916503523885,16.8054928633662));
#504=CARTESIAN_POINT('Ctrl Pts',(1.01204032594506,16.7455321812264,16.8213877450588));
#505=CARTESIAN_POINT('Ctrl Pts',(0.519350902477536,16.9497135353005,16.8437996286291));
#506=CARTESIAN_POINT('Ctrl Pts',(0.251378160841437,17.,16.85));
#507=CARTESIAN_POINT('Ctrl Pts',(-0.251378160841435,17.,16.85));
#508=CARTESIAN_POINT('Ctrl Pts',(-0.519350902477534,16.9497135353005,16.8437996286291));
#509=CARTESIAN_POINT('Ctrl Pts',(-1.01204032594505,16.7455321812264,16.8213877450588));
#510=CARTESIAN_POINT('Ctrl Pts',(-1.23677677235768,16.5916503523885,16.8054928633662));
#511=CARTESIAN_POINT('Ctrl Pts',(-1.59165155575119,16.236775568995,16.7756029078076));
#512=CARTESIAN_POINT('Ctrl Pts',(-1.74553244245265,16.0120396467701,16.7596588787969));
#513=CARTESIAN_POINT('Ctrl Pts',(-1.94971310324267,15.5193519938689,16.7371344058897));
#514=CARTESIAN_POINT('Ctrl Pts',(-2.,15.2513798656688,16.7308846149867));
#515=CARTESIAN_POINT('Ctrl Pts',(-2.,15.,16.7308846149867));
#516=CARTESIAN_POINT('Ctrl Pts',(-2.,15.,16.7308846149867));
#517=CARTESIAN_POINT('Ctrl Pts',(-2.,14.7486201343312,16.7308846149867));
#518=CARTESIAN_POINT('Ctrl Pts',(-1.94971310324267,14.4806480061311,16.7371344058897));
#519=CARTESIAN_POINT('Ctrl Pts',(-1.74553244245266,13.9879603532299,16.7596588787969));
#520=CARTESIAN_POINT('Ctrl Pts',(-1.59165155575119,13.763224431005,16.7756029078076));
#521=CARTESIAN_POINT('Ctrl Pts',(-1.23677677235768,13.4083496476115,16.8054928633662));
#522=CARTESIAN_POINT('Ctrl Pts',(-1.01204032594505,13.2544678187736,16.8213877450588));
#523=CARTESIAN_POINT('Ctrl Pts',(-0.519350902477532,13.0502864646995,16.8437996286291));
#524=CARTESIAN_POINT('Ctrl Pts',(-0.251378160841435,13.,16.85));
#525=CARTESIAN_POINT('Ctrl Pts',(0.251378160841437,13.,16.85));
#526=CARTESIAN_POINT('Ctrl Pts',(0.519350902477535,13.0502864646995,16.8437996286291));
#527=CARTESIAN_POINT('Ctrl Pts',(1.01204032594506,13.2544678187736,16.8213877450588));
#528=CARTESIAN_POINT('Ctrl Pts',(1.23677677235768,13.4083496476115,16.8054928633662));
#529=CARTESIAN_POINT('Ctrl Pts',(1.5916515557512,13.763224431005,16.7756029078076));
#530=CARTESIAN_POINT('Ctrl Pts',(1.74553244245266,13.9879603532299,16.7596588787969));
#531=CARTESIAN_POINT('Ctrl Pts',(1.94971310324267,14.4806480061311,16.7371344058897));
#532=CARTESIAN_POINT('Ctrl Pts',(2.,14.7486201343312,16.7308846149867));
#533=CARTESIAN_POINT('Ctrl Pts',(2.,15.,16.7308846149867));
#534=CARTESIAN_POINT('Origin',(0.,5.,0.));
#535=CARTESIAN_POINT('',(-16.85,0.,-2.06352985656329E-15));
#536=CARTESIAN_POINT('',(-16.85,5.,-2.06352985656329E-15));
#537=CARTESIAN_POINT('Origin',(0.,0.,0.));
#538=CARTESIAN_POINT('Origin',(27.2798002192098,4.,-15.75));
#539=CARTESIAN_POINT('',(24.0298002192098,3.,-15.75));
#540=CARTESIAN_POINT('',(23.0298002192098,4.,-15.75));
#541=CARTESIAN_POINT('Origin',(27.2798002192098,3.,-15.75));
#542=CARTESIAN_POINT('Origin',(27.2798002192098,0.,-15.75));
#543=CARTESIAN_POINT('',(24.0298002192098,0.,-15.75));
#544=CARTESIAN_POINT('',(24.0298002192098,0.,-15.75));
#545=CARTESIAN_POINT('Origin',(27.2798002192098,0.,-15.75));
#546=CARTESIAN_POINT('Origin',(0.,4.,31.5));
#547=CARTESIAN_POINT('',(-3.25,3.,31.5));
#548=CARTESIAN_POINT('',(-4.25,4.,31.5));
#549=CARTESIAN_POINT('Origin',(0.,3.,31.5));
#550=CARTESIAN_POINT('Origin',(0.,0.,31.5));
#551=CARTESIAN_POINT('',(-3.25,0.,31.5));
#552=CARTESIAN_POINT('',(-3.25,0.,31.5));
#553=CARTESIAN_POINT('Origin',(0.,0.,31.5));
#554=CARTESIAN_POINT('Origin',(-27.2798002192098,4.,-15.75));
#555=CARTESIAN_POINT('',(-30.5298002192098,3.,-15.75));
#556=CARTESIAN_POINT('',(-31.5298002192098,4.,-15.75));
#557=CARTESIAN_POINT('Origin',(-27.2798002192098,3.,-15.75));
#558=CARTESIAN_POINT('Origin',(-27.2798002192098,0.,-15.75));
#559=CARTESIAN_POINT('',(-30.5298002192098,0.,-15.75));
#560=CARTESIAN_POINT('',(-30.5298002192098,0.,-15.75));
#561=CARTESIAN_POINT('Origin',(-27.2798002192098,0.,-15.75));
#562=CARTESIAN_POINT('Origin',(0.,0.,0.));
#563=UNCERTAINTY_MEASURE_WITH_UNIT(LENGTH_MEASURE(0.01),#567,
'DISTANCE_ACCURACY_VALUE',
'Maximum model space distance between geometric entities at asserted c
onnectivities');
#564=UNCERTAINTY_MEASURE_WITH_UNIT(LENGTH_MEASURE(0.01),#567,
'DISTANCE_ACCURACY_VALUE',
'Maximum model space distance between geometric entities at asserted c
onnectivities');
#565=(
GEOMETRIC_REPRESENTATION_CONTEXT(3)
GLOBAL_UNCERTAINTY_ASSIGNED_CONTEXT((#563))
GLOBAL_UNIT_ASSIGNED_CONTEXT((#567,#569,#570))
REPRESENTATION_CONTEXT('','3D')
);
#566=(
GEOMETRIC_REPRESENTATION_CONTEXT(3)
GLOBAL_UNCERTAINTY_ASSIGNED_CONTEXT((#564))
GLOBAL_UNIT_ASSIGNED_CONTEXT((#567,#569,#570))
REPRESENTATION_CONTEXT('','3D')
);
#567=(
LENGTH_UNIT()
NAMED_UNIT(*)
SI_UNIT(.MILLI.,.METRE.)
);
#568=(
LENGTH_UNIT()
NAMED_UNIT(*)
SI_UNIT(.CENTI.,.METRE.)
);
#569=(
NAMED_UNIT(*)
PLANE_ANGLE_UNIT()
SI_UNIT($,.RADIAN.)
);
#570=(
NAMED_UNIT(*)
SI_UNIT($,.STERADIAN.)
SOLID_ANGLE_UNIT()
);
#571=SHAPE_DEFINITION_REPRESENTATION(#572,#573);
#572=PRODUCT_DEFINITION_SHAPE('',$,#575);
#573=SHAPE_REPRESENTATION('',(#297),#565);
#574=PRODUCT_DEFINITION_CONTEXT('part definition',#579,'design');
#575=PRODUCT_DEFINITION('43204','43204',#576,#574);
#576=PRODUCT_DEFINITION_FORMATION('',$,#581);
#577=PRODUCT_RELATED_PRODUCT_CATEGORY('43204','43204',(#581));
#578=APPLICATION_PROTOCOL_DEFINITION('international standard',
'automotive_design',2009,#579);
#579=APPLICATION_CONTEXT(
'Core Data for Automotive Mechanical Design Process');
#580=PRODUCT_CONTEXT('part definition',#579,'mechanical');
#581=PRODUCT('43204','43204',$,(#580));
#582=PRESENTATION_STYLE_ASSIGNMENT((#583));
#583=SURFACE_STYLE_USAGE(.BOTH.,#586);
#584=SURFACE_STYLE_RENDERING_WITH_PROPERTIES($,#590,(#585));
#585=SURFACE_STYLE_TRANSPARENT(0.);
#586=SURFACE_SIDE_STYLE('',(#587,#584));
#587=SURFACE_STYLE_FILL_AREA(#588);
#588=FILL_AREA_STYLE('',(#589));
#589=FILL_AREA_STYLE_COLOUR('',#590);
#590=COLOUR_RGB('',0.956862745098039,0.956862745098039,0.956862745098039);
ENDSEC;
END-ISO-10303-21;
