ISO-10303-21;
HEADER;
/* Generated by software containing ST-Developer
 * from STEP Tools, Inc. (www.steptools.com) 
 */

FILE_DESCRIPTION(
/* description */ (''),
/* implementation_level */ '2;1');

FILE_NAME(
/* name */ 
'C:\\Users\\O.Boryczka\\Desktop\\Korrigierte Zeichnungen\\Rohrb\X\F6ge
n V2A\\43229.ipt.step',
/* time_stamp */ '2022-07-18T12:56:25+02:00',
/* author */ ('Abt. Technik'),
/* organization */ (''),
/* preprocessor_version */ 'ST-DEVELOPER v18.1',
/* originating_system */ 'Autodesk Inventor 2022',
/* authorisation */ '');

FILE_SCHEMA (('AUTOMOTIVE_DESIGN { 1 0 10303 214 3 1 1 }'));
ENDSEC;

DATA;
#10=MECHANICAL_DESIGN_GEOMETRIC_PRESENTATION_REPRESENTATION('',(#13),#224);
#11=SHAPE_REPRESENTATION_RELATIONSHIP('SRR','None',#231,#12);
#12=ADVANCED_BREP_SHAPE_REPRESENTATION('',(#14),#223);
#13=STYLED_ITEM('',(#240),#14);
#14=MANIFOLD_SOLID_BREP('Volumenk\X\F6rper2',#113);
#15=FACE_BOUND('',#29,.T.);
#16=FACE_BOUND('',#32,.T.);
#17=PLANE('',#148);
#18=PLANE('',#151);
#19=FACE_OUTER_BOUND('',#25,.T.);
#20=FACE_OUTER_BOUND('',#26,.T.);
#21=FACE_OUTER_BOUND('',#27,.T.);
#22=FACE_OUTER_BOUND('',#28,.T.);
#23=FACE_OUTER_BOUND('',#30,.T.);
#24=FACE_OUTER_BOUND('',#31,.T.);
#25=EDGE_LOOP('',(#75,#76,#77,#78,#79,#80));
#26=EDGE_LOOP('',(#81,#82,#83,#84,#85,#86));
#27=EDGE_LOOP('',(#87,#88,#89,#90,#91,#92));
#28=EDGE_LOOP('',(#93));
#29=EDGE_LOOP('',(#94));
#30=EDGE_LOOP('',(#95,#96,#97,#98,#99,#100));
#31=EDGE_LOOP('',(#101));
#32=EDGE_LOOP('',(#102));
#33=CIRCLE('',#139,19.2);
#34=CIRCLE('',#142,19.2);
#35=CIRCLE('',#144,21.2);
#36=CIRCLE('',#150,21.2);
#37=LINE('',#198,#41);
#38=LINE('',#204,#42);
#39=LINE('',#209,#43);
#40=LINE('',#218,#44);
#41=VECTOR('',#160,21.2);
#42=VECTOR('',#169,21.2);
#43=VECTOR('',#174,21.2);
#44=VECTOR('',#185,21.2);
#45=ELLIPSE('',#137,27.1529003975634,19.2);
#46=ELLIPSE('',#138,27.1529003975634,19.2);
#47=ELLIPSE('',#140,27.1529003975634,19.2);
#48=ELLIPSE('',#145,29.9813275223096,21.2);
#49=ELLIPSE('',#146,29.9813275223096,21.2);
#50=ELLIPSE('',#147,29.9813275223096,21.2);
#51=VERTEX_POINT('',#192);
#52=VERTEX_POINT('',#193);
#53=VERTEX_POINT('',#195);
#54=VERTEX_POINT('',#197);
#55=VERTEX_POINT('',#202);
#56=VERTEX_POINT('',#206);
#57=VERTEX_POINT('',#208);
#58=VERTEX_POINT('',#210);
#59=VERTEX_POINT('',#212);
#60=VERTEX_POINT('',#217);
#61=EDGE_CURVE('',#51,#52,#45,.F.);
#62=EDGE_CURVE('',#52,#53,#46,.F.);
#63=EDGE_CURVE('',#53,#54,#37,.T.);
#64=EDGE_CURVE('',#54,#54,#33,.T.);
#65=EDGE_CURVE('',#53,#51,#47,.F.);
#66=EDGE_CURVE('',#55,#55,#34,.T.);
#67=EDGE_CURVE('',#55,#53,#38,.T.);
#68=EDGE_CURVE('',#56,#56,#35,.T.);
#69=EDGE_CURVE('',#56,#57,#39,.T.);
#70=EDGE_CURVE('',#58,#57,#48,.T.);
#71=EDGE_CURVE('',#59,#58,#49,.T.);
#72=EDGE_CURVE('',#57,#59,#50,.T.);
#73=EDGE_CURVE('',#57,#60,#40,.T.);
#74=EDGE_CURVE('',#60,#60,#36,.T.);
#75=ORIENTED_EDGE('',*,*,#61,.T.);
#76=ORIENTED_EDGE('',*,*,#62,.T.);
#77=ORIENTED_EDGE('',*,*,#63,.T.);
#78=ORIENTED_EDGE('',*,*,#64,.F.);
#79=ORIENTED_EDGE('',*,*,#63,.F.);
#80=ORIENTED_EDGE('',*,*,#65,.T.);
#81=ORIENTED_EDGE('',*,*,#66,.F.);
#82=ORIENTED_EDGE('',*,*,#67,.T.);
#83=ORIENTED_EDGE('',*,*,#62,.F.);
#84=ORIENTED_EDGE('',*,*,#61,.F.);
#85=ORIENTED_EDGE('',*,*,#65,.F.);
#86=ORIENTED_EDGE('',*,*,#67,.F.);
#87=ORIENTED_EDGE('',*,*,#68,.F.);
#88=ORIENTED_EDGE('',*,*,#69,.T.);
#89=ORIENTED_EDGE('',*,*,#70,.F.);
#90=ORIENTED_EDGE('',*,*,#71,.F.);
#91=ORIENTED_EDGE('',*,*,#72,.F.);
#92=ORIENTED_EDGE('',*,*,#69,.F.);
#93=ORIENTED_EDGE('',*,*,#68,.T.);
#94=ORIENTED_EDGE('',*,*,#64,.T.);
#95=ORIENTED_EDGE('',*,*,#71,.T.);
#96=ORIENTED_EDGE('',*,*,#70,.T.);
#97=ORIENTED_EDGE('',*,*,#73,.T.);
#98=ORIENTED_EDGE('',*,*,#74,.T.);
#99=ORIENTED_EDGE('',*,*,#73,.F.);
#100=ORIENTED_EDGE('',*,*,#72,.T.);
#101=ORIENTED_EDGE('',*,*,#74,.F.);
#102=ORIENTED_EDGE('',*,*,#66,.T.);
#103=CYLINDRICAL_SURFACE('',#136,19.2);
#104=CYLINDRICAL_SURFACE('',#141,19.2);
#105=CYLINDRICAL_SURFACE('',#143,21.2);
#106=CYLINDRICAL_SURFACE('',#149,21.2);
#107=ADVANCED_FACE('',(#19),#103,.F.);
#108=ADVANCED_FACE('',(#20),#104,.F.);
#109=ADVANCED_FACE('',(#21),#105,.T.);
#110=ADVANCED_FACE('',(#22,#15),#17,.T.);
#111=ADVANCED_FACE('',(#23),#106,.T.);
#112=ADVANCED_FACE('',(#24,#16),#18,.F.);
#113=CLOSED_SHELL('',(#107,#108,#109,#110,#111,#112));
#114=DERIVED_UNIT_ELEMENT(#117,1.);
#115=DERIVED_UNIT_ELEMENT(#226,-3.);
#116=DIMENSIONAL_EXPONENTS(1.,0.,0.,0.,0.,0.,0.);
#117=(
CONVERSION_BASED_UNIT('gram',#119)
MASS_UNIT()
NAMED_UNIT(#116)
);
#118=(
MASS_UNIT()
NAMED_UNIT(*)
SI_UNIT(.KILO.,.GRAM.)
);
#119=MASS_MEASURE_WITH_UNIT(MASS_MEASURE(0.001),#118);
#120=DERIVED_UNIT((#114,#115));
#121=MEASURE_REPRESENTATION_ITEM('density measure',
POSITIVE_RATIO_MEASURE(8.),#120);
#122=PROPERTY_DEFINITION_REPRESENTATION(#127,#124);
#123=PROPERTY_DEFINITION_REPRESENTATION(#128,#125);
#124=REPRESENTATION('material name',(#126),#223);
#125=REPRESENTATION('density',(#121),#223);
#126=DESCRIPTIVE_REPRESENTATION_ITEM('Edelstahl AISI 304',
'Edelstahl AISI 304');
#127=PROPERTY_DEFINITION('material property','material name',#233);
#128=PROPERTY_DEFINITION('material property','density of part',#233);
#129=DATE_TIME_ROLE('creation_date');
#130=APPLIED_DATE_AND_TIME_ASSIGNMENT(#131,#129,(#233));
#131=DATE_AND_TIME(#132,#133);
#132=CALENDAR_DATE(2021,11,5);
#133=LOCAL_TIME(0,0,0.,#134);
#134=COORDINATED_UNIVERSAL_TIME_OFFSET(0,0,.BEHIND.);
#135=AXIS2_PLACEMENT_3D('placement',#190,#152,#153);
#136=AXIS2_PLACEMENT_3D('',#191,#154,#155);
#137=AXIS2_PLACEMENT_3D('',#194,#156,#157);
#138=AXIS2_PLACEMENT_3D('',#196,#158,#159);
#139=AXIS2_PLACEMENT_3D('',#199,#161,#162);
#140=AXIS2_PLACEMENT_3D('',#200,#163,#164);
#141=AXIS2_PLACEMENT_3D('',#201,#165,#166);
#142=AXIS2_PLACEMENT_3D('',#203,#167,#168);
#143=AXIS2_PLACEMENT_3D('',#205,#170,#171);
#144=AXIS2_PLACEMENT_3D('',#207,#172,#173);
#145=AXIS2_PLACEMENT_3D('',#211,#175,#176);
#146=AXIS2_PLACEMENT_3D('',#213,#177,#178);
#147=AXIS2_PLACEMENT_3D('',#214,#179,#180);
#148=AXIS2_PLACEMENT_3D('',#215,#181,#182);
#149=AXIS2_PLACEMENT_3D('',#216,#183,#184);
#150=AXIS2_PLACEMENT_3D('',#219,#186,#187);
#151=AXIS2_PLACEMENT_3D('',#220,#188,#189);
#152=DIRECTION('axis',(0.,0.,1.));
#153=DIRECTION('refdir',(1.,0.,0.));
#154=DIRECTION('center_axis',(1.,4.55476112666731E-16,0.));
#155=DIRECTION('ref_axis',(-4.55476112666731E-16,1.,0.));
#156=DIRECTION('center_axis',(0.707106781186548,0.707106781186547,0.));
#157=DIRECTION('ref_axis',(-0.707106781186547,0.707106781186548,0.));
#158=DIRECTION('center_axis',(0.707106781186548,0.707106781186547,0.));
#159=DIRECTION('ref_axis',(-0.707106781186547,0.707106781186548,0.));
#160=DIRECTION('',(1.,4.55476112666731E-16,0.));
#161=DIRECTION('center_axis',(-1.,-4.55476112666731E-16,0.));
#162=DIRECTION('ref_axis',(-4.55476112666731E-16,1.,0.));
#163=DIRECTION('center_axis',(0.707106781186548,0.707106781186547,0.));
#164=DIRECTION('ref_axis',(-0.707106781186547,0.707106781186548,0.));
#165=DIRECTION('center_axis',(0.,1.,0.));
#166=DIRECTION('ref_axis',(-1.,0.,0.));
#167=DIRECTION('center_axis',(0.,1.,0.));
#168=DIRECTION('ref_axis',(-1.,0.,0.));
#169=DIRECTION('',(0.,1.,0.));
#170=DIRECTION('center_axis',(1.,4.55476112666731E-16,0.));
#171=DIRECTION('ref_axis',(-4.55476112666731E-16,1.,0.));
#172=DIRECTION('center_axis',(1.,4.55476112666731E-16,0.));
#173=DIRECTION('ref_axis',(-4.55476112666731E-16,1.,0.));
#174=DIRECTION('',(-1.,-4.55476112666731E-16,0.));
#175=DIRECTION('center_axis',(-0.707106781186547,-0.707106781186548,0.));
#176=DIRECTION('ref_axis',(-0.707106781186548,0.707106781186547,0.));
#177=DIRECTION('center_axis',(-0.707106781186547,-0.707106781186548,0.));
#178=DIRECTION('ref_axis',(-0.707106781186548,0.707106781186547,0.));
#179=DIRECTION('center_axis',(-0.707106781186547,-0.707106781186548,0.));
#180=DIRECTION('ref_axis',(-0.707106781186548,0.707106781186547,0.));
#181=DIRECTION('center_axis',(1.,4.55476112666731E-16,0.));
#182=DIRECTION('ref_axis',(0.,0.,1.));
#183=DIRECTION('center_axis',(0.,1.,0.));
#184=DIRECTION('ref_axis',(-1.,0.,0.));
#185=DIRECTION('',(0.,-1.,0.));
#186=DIRECTION('center_axis',(0.,1.,0.));
#187=DIRECTION('ref_axis',(-1.,0.,0.));
#188=DIRECTION('center_axis',(0.,1.,0.));
#189=DIRECTION('ref_axis',(0.,0.,1.));
#190=CARTESIAN_POINT('',(0.,0.,0.));
#191=CARTESIAN_POINT('Origin',(0.,250.,0.));
#192=CARTESIAN_POINT('',(0.,250.,19.2));
#193=CARTESIAN_POINT('',(0.,250.,-19.2));
#194=CARTESIAN_POINT('Origin',(0.,250.,0.));
#195=CARTESIAN_POINT('',(19.2,230.8,-2.35132185436292E-15));
#196=CARTESIAN_POINT('Origin',(0.,250.,0.));
#197=CARTESIAN_POINT('',(250.,230.8,2.35132185436292E-15));
#198=CARTESIAN_POINT('',(8.74514136320123E-15,230.8,-2.35132185436292E-15));
#199=CARTESIAN_POINT('Origin',(250.,250.,0.));
#200=CARTESIAN_POINT('Origin',(0.,250.,0.));
#201=CARTESIAN_POINT('Origin',(0.,0.,0.));
#202=CARTESIAN_POINT('',(19.2,0.,2.35132185436292E-15));
#203=CARTESIAN_POINT('Origin',(0.,0.,0.));
#204=CARTESIAN_POINT('',(19.2,0.,-2.35132185436292E-15));
#205=CARTESIAN_POINT('Origin',(0.,250.,0.));
#206=CARTESIAN_POINT('',(250.,228.8,-2.59625121419239E-15));
#207=CARTESIAN_POINT('Origin',(250.,250.,0.));
#208=CARTESIAN_POINT('',(21.2,228.8,-2.59625121419239E-15));
#209=CARTESIAN_POINT('',(9.65609358853469E-15,228.8,-2.59625121419239E-15));
#210=CARTESIAN_POINT('',(0.,250.,-21.2));
#211=CARTESIAN_POINT('Origin',(0.,250.,0.));
#212=CARTESIAN_POINT('',(0.,250.,21.2));
#213=CARTESIAN_POINT('Origin',(3.5527136788005E-14,250.,0.));
#214=CARTESIAN_POINT('Origin',(0.,250.,0.));
#215=CARTESIAN_POINT('Origin',(250.,250.,0.));
#216=CARTESIAN_POINT('Origin',(0.,0.,0.));
#217=CARTESIAN_POINT('',(21.2,0.,-2.59625121419239E-15));
#218=CARTESIAN_POINT('',(21.2,0.,-2.59625121419239E-15));
#219=CARTESIAN_POINT('Origin',(0.,0.,0.));
#220=CARTESIAN_POINT('Origin',(0.,0.,0.));
#221=UNCERTAINTY_MEASURE_WITH_UNIT(LENGTH_MEASURE(0.01),#225,
'DISTANCE_ACCURACY_VALUE',
'Maximum model space distance between geometric entities at asserted c
onnectivities');
#222=UNCERTAINTY_MEASURE_WITH_UNIT(LENGTH_MEASURE(0.01),#225,
'DISTANCE_ACCURACY_VALUE',
'Maximum model space distance between geometric entities at asserted c
onnectivities');
#223=(
GEOMETRIC_REPRESENTATION_CONTEXT(3)
GLOBAL_UNCERTAINTY_ASSIGNED_CONTEXT((#221))
GLOBAL_UNIT_ASSIGNED_CONTEXT((#225,#227,#228))
REPRESENTATION_CONTEXT('','3D')
);
#224=(
GEOMETRIC_REPRESENTATION_CONTEXT(3)
GLOBAL_UNCERTAINTY_ASSIGNED_CONTEXT((#222))
GLOBAL_UNIT_ASSIGNED_CONTEXT((#225,#227,#228))
REPRESENTATION_CONTEXT('','3D')
);
#225=(
LENGTH_UNIT()
NAMED_UNIT(*)
SI_UNIT(.MILLI.,.METRE.)
);
#226=(
LENGTH_UNIT()
NAMED_UNIT(*)
SI_UNIT(.CENTI.,.METRE.)
);
#227=(
NAMED_UNIT(*)
PLANE_ANGLE_UNIT()
SI_UNIT($,.RADIAN.)
);
#228=(
NAMED_UNIT(*)
SI_UNIT($,.STERADIAN.)
SOLID_ANGLE_UNIT()
);
#229=SHAPE_DEFINITION_REPRESENTATION(#230,#231);
#230=PRODUCT_DEFINITION_SHAPE('',$,#233);
#231=SHAPE_REPRESENTATION('',(#135),#223);
#232=PRODUCT_DEFINITION_CONTEXT('part definition',#237,'design');
#233=PRODUCT_DEFINITION('43229','43229',#234,#232);
#234=PRODUCT_DEFINITION_FORMATION('',$,#239);
#235=PRODUCT_RELATED_PRODUCT_CATEGORY('43229','43229',(#239));
#236=APPLICATION_PROTOCOL_DEFINITION('international standard',
'automotive_design',2009,#237);
#237=APPLICATION_CONTEXT(
'Core Data for Automotive Mechanical Design Process');
#238=PRODUCT_CONTEXT('part definition',#237,'mechanical');
#239=PRODUCT('43229','43229',$,(#238));
#240=PRESENTATION_STYLE_ASSIGNMENT((#241));
#241=SURFACE_STYLE_USAGE(.BOTH.,#244);
#242=SURFACE_STYLE_RENDERING_WITH_PROPERTIES($,#248,(#243));
#243=SURFACE_STYLE_TRANSPARENT(0.);
#244=SURFACE_SIDE_STYLE('',(#245,#242));
#245=SURFACE_STYLE_FILL_AREA(#246);
#246=FILL_AREA_STYLE('',(#247));
#247=FILL_AREA_STYLE_COLOUR('',#248);
#248=COLOUR_RGB('',0.956862745098039,0.956862745098039,0.956862745098039);
ENDSEC;
END-ISO-10303-21;
