ISO-10303-21;
HEADER;
/* Generated by software containing ST-Developer
 * from STEP Tools, Inc. (www.steptools.com) 
 */

FILE_DESCRIPTION(
/* description */ (''),
/* implementation_level */ '2;1');

FILE_NAME(
/* name */ 
'C:\\Users\\O.Boryczka\\Desktop\\Korrigierte Zeichnungen\\Anschwei\X\DF
laschen V2A\\IPT_Daten\\43299.ipt.step',
/* time_stamp */ '2022-07-18T12:53:18+02:00',
/* author */ ('Nutzer'),
/* organization */ (''),
/* preprocessor_version */ 'ST-DEVELOPER v18.1',
/* originating_system */ 'Autodesk Inventor 2022',
/* authorisation */ '');

FILE_SCHEMA (('AUTOMOTIVE_DESIGN { 1 0 10303 214 3 1 1 }'));
ENDSEC;

DATA;
#10=MECHANICAL_DESIGN_GEOMETRIC_PRESENTATION_REPRESENTATION('',(#13),#402);
#11=SHAPE_REPRESENTATION_RELATIONSHIP('SRR','None',#409,#12);
#12=ADVANCED_BREP_SHAPE_REPRESENTATION('',(#14),#401);
#13=STYLED_ITEM('',(#418),#14);
#14=MANIFOLD_SOLID_BREP('Volumenk\X\F6rper1',#229);
#15=FACE_BOUND('',#52,.T.);
#16=FACE_BOUND('',#54,.T.);
#17=CIRCLE('',#254,4.5);
#18=CIRCLE('',#255,4.5);
#19=CIRCLE('',#258,4.5);
#20=CIRCLE('',#259,4.5);
#21=CIRCLE('',#263,2.00000000000001);
#22=CIRCLE('',#264,2.00000000000001);
#23=CIRCLE('',#267,2.00000000000001);
#24=CIRCLE('',#268,2.00000000000001);
#25=CYLINDRICAL_SURFACE('',#253,4.5);
#26=CYLINDRICAL_SURFACE('',#257,4.5);
#27=CYLINDRICAL_SURFACE('',#262,2.00000000000001);
#28=CYLINDRICAL_SURFACE('',#266,2.00000000000001);
#29=FACE_OUTER_BOUND('',#41,.T.);
#30=FACE_OUTER_BOUND('',#42,.T.);
#31=FACE_OUTER_BOUND('',#43,.T.);
#32=FACE_OUTER_BOUND('',#44,.T.);
#33=FACE_OUTER_BOUND('',#45,.T.);
#34=FACE_OUTER_BOUND('',#46,.T.);
#35=FACE_OUTER_BOUND('',#47,.T.);
#36=FACE_OUTER_BOUND('',#48,.T.);
#37=FACE_OUTER_BOUND('',#49,.T.);
#38=FACE_OUTER_BOUND('',#50,.T.);
#39=FACE_OUTER_BOUND('',#51,.T.);
#40=FACE_OUTER_BOUND('',#53,.T.);
#41=EDGE_LOOP('',(#149,#150,#151,#152));
#42=EDGE_LOOP('',(#153,#154,#155,#156));
#43=EDGE_LOOP('',(#157,#158,#159,#160));
#44=EDGE_LOOP('',(#161,#162,#163,#164));
#45=EDGE_LOOP('',(#165,#166,#167,#168));
#46=EDGE_LOOP('',(#169,#170,#171,#172));
#47=EDGE_LOOP('',(#173,#174,#175,#176));
#48=EDGE_LOOP('',(#177,#178,#179,#180));
#49=EDGE_LOOP('',(#181,#182,#183,#184));
#50=EDGE_LOOP('',(#185,#186,#187,#188));
#51=EDGE_LOOP('',(#189,#190,#191,#192,#193,#194));
#52=EDGE_LOOP('',(#195,#196,#197,#198));
#53=EDGE_LOOP('',(#199,#200,#201,#202,#203,#204));
#54=EDGE_LOOP('',(#205,#206,#207,#208));
#55=LINE('',#340,#77);
#56=LINE('',#342,#78);
#57=LINE('',#344,#79);
#58=LINE('',#345,#80);
#59=LINE('',#351,#81);
#60=LINE('',#354,#82);
#61=LINE('',#356,#83);
#62=LINE('',#357,#84);
#63=LINE('',#364,#85);
#64=LINE('',#366,#86);
#65=LINE('',#368,#87);
#66=LINE('',#369,#88);
#67=LINE('',#372,#89);
#68=LINE('',#374,#90);
#69=LINE('',#375,#91);
#70=LINE('',#381,#92);
#71=LINE('',#384,#93);
#72=LINE('',#386,#94);
#73=LINE('',#387,#95);
#74=LINE('',#393,#96);
#75=LINE('',#395,#97);
#76=LINE('',#396,#98);
#77=VECTOR('',#276,10.);
#78=VECTOR('',#277,10.);
#79=VECTOR('',#278,10.);
#80=VECTOR('',#279,10.);
#81=VECTOR('',#286,10.);
#82=VECTOR('',#289,10.);
#83=VECTOR('',#290,10.);
#84=VECTOR('',#291,10.);
#85=VECTOR('',#300,10.);
#86=VECTOR('',#301,10.);
#87=VECTOR('',#302,10.);
#88=VECTOR('',#303,10.);
#89=VECTOR('',#306,10.);
#90=VECTOR('',#307,10.);
#91=VECTOR('',#308,10.);
#92=VECTOR('',#315,10.);
#93=VECTOR('',#318,10.);
#94=VECTOR('',#319,10.);
#95=VECTOR('',#320,10.);
#96=VECTOR('',#327,10.);
#97=VECTOR('',#330,10.);
#98=VECTOR('',#331,10.);
#99=VERTEX_POINT('',#338);
#100=VERTEX_POINT('',#339);
#101=VERTEX_POINT('',#341);
#102=VERTEX_POINT('',#343);
#103=VERTEX_POINT('',#347);
#104=VERTEX_POINT('',#349);
#105=VERTEX_POINT('',#353);
#106=VERTEX_POINT('',#355);
#107=VERTEX_POINT('',#362);
#108=VERTEX_POINT('',#363);
#109=VERTEX_POINT('',#365);
#110=VERTEX_POINT('',#367);
#111=VERTEX_POINT('',#371);
#112=VERTEX_POINT('',#373);
#113=VERTEX_POINT('',#377);
#114=VERTEX_POINT('',#379);
#115=VERTEX_POINT('',#383);
#116=VERTEX_POINT('',#385);
#117=VERTEX_POINT('',#389);
#118=VERTEX_POINT('',#391);
#119=EDGE_CURVE('',#99,#100,#55,.T.);
#120=EDGE_CURVE('',#100,#101,#56,.T.);
#121=EDGE_CURVE('',#102,#101,#57,.T.);
#122=EDGE_CURVE('',#99,#102,#58,.T.);
#123=EDGE_CURVE('',#103,#99,#17,.T.);
#124=EDGE_CURVE('',#104,#102,#18,.T.);
#125=EDGE_CURVE('',#103,#104,#59,.T.);
#126=EDGE_CURVE('',#105,#103,#60,.T.);
#127=EDGE_CURVE('',#106,#104,#61,.T.);
#128=EDGE_CURVE('',#105,#106,#62,.T.);
#129=EDGE_CURVE('',#100,#105,#19,.T.);
#130=EDGE_CURVE('',#101,#106,#20,.T.);
#131=EDGE_CURVE('',#107,#108,#63,.T.);
#132=EDGE_CURVE('',#108,#109,#64,.T.);
#133=EDGE_CURVE('',#110,#109,#65,.T.);
#134=EDGE_CURVE('',#107,#110,#66,.T.);
#135=EDGE_CURVE('',#111,#107,#67,.T.);
#136=EDGE_CURVE('',#112,#110,#68,.T.);
#137=EDGE_CURVE('',#111,#112,#69,.T.);
#138=EDGE_CURVE('',#113,#111,#21,.T.);
#139=EDGE_CURVE('',#114,#112,#22,.T.);
#140=EDGE_CURVE('',#113,#114,#70,.T.);
#141=EDGE_CURVE('',#115,#113,#71,.T.);
#142=EDGE_CURVE('',#116,#114,#72,.T.);
#143=EDGE_CURVE('',#115,#116,#73,.T.);
#144=EDGE_CURVE('',#117,#115,#23,.T.);
#145=EDGE_CURVE('',#118,#116,#24,.T.);
#146=EDGE_CURVE('',#117,#118,#74,.T.);
#147=EDGE_CURVE('',#108,#117,#75,.T.);
#148=EDGE_CURVE('',#109,#118,#76,.T.);
#149=ORIENTED_EDGE('',*,*,#119,.T.);
#150=ORIENTED_EDGE('',*,*,#120,.T.);
#151=ORIENTED_EDGE('',*,*,#121,.F.);
#152=ORIENTED_EDGE('',*,*,#122,.F.);
#153=ORIENTED_EDGE('',*,*,#123,.T.);
#154=ORIENTED_EDGE('',*,*,#122,.T.);
#155=ORIENTED_EDGE('',*,*,#124,.F.);
#156=ORIENTED_EDGE('',*,*,#125,.F.);
#157=ORIENTED_EDGE('',*,*,#126,.T.);
#158=ORIENTED_EDGE('',*,*,#125,.T.);
#159=ORIENTED_EDGE('',*,*,#127,.F.);
#160=ORIENTED_EDGE('',*,*,#128,.F.);
#161=ORIENTED_EDGE('',*,*,#129,.T.);
#162=ORIENTED_EDGE('',*,*,#128,.T.);
#163=ORIENTED_EDGE('',*,*,#130,.F.);
#164=ORIENTED_EDGE('',*,*,#120,.F.);
#165=ORIENTED_EDGE('',*,*,#131,.T.);
#166=ORIENTED_EDGE('',*,*,#132,.T.);
#167=ORIENTED_EDGE('',*,*,#133,.F.);
#168=ORIENTED_EDGE('',*,*,#134,.F.);
#169=ORIENTED_EDGE('',*,*,#135,.T.);
#170=ORIENTED_EDGE('',*,*,#134,.T.);
#171=ORIENTED_EDGE('',*,*,#136,.F.);
#172=ORIENTED_EDGE('',*,*,#137,.F.);
#173=ORIENTED_EDGE('',*,*,#138,.T.);
#174=ORIENTED_EDGE('',*,*,#137,.T.);
#175=ORIENTED_EDGE('',*,*,#139,.F.);
#176=ORIENTED_EDGE('',*,*,#140,.F.);
#177=ORIENTED_EDGE('',*,*,#141,.T.);
#178=ORIENTED_EDGE('',*,*,#140,.T.);
#179=ORIENTED_EDGE('',*,*,#142,.F.);
#180=ORIENTED_EDGE('',*,*,#143,.F.);
#181=ORIENTED_EDGE('',*,*,#144,.T.);
#182=ORIENTED_EDGE('',*,*,#143,.T.);
#183=ORIENTED_EDGE('',*,*,#145,.F.);
#184=ORIENTED_EDGE('',*,*,#146,.F.);
#185=ORIENTED_EDGE('',*,*,#147,.T.);
#186=ORIENTED_EDGE('',*,*,#146,.T.);
#187=ORIENTED_EDGE('',*,*,#148,.F.);
#188=ORIENTED_EDGE('',*,*,#132,.F.);
#189=ORIENTED_EDGE('',*,*,#148,.T.);
#190=ORIENTED_EDGE('',*,*,#145,.T.);
#191=ORIENTED_EDGE('',*,*,#142,.T.);
#192=ORIENTED_EDGE('',*,*,#139,.T.);
#193=ORIENTED_EDGE('',*,*,#136,.T.);
#194=ORIENTED_EDGE('',*,*,#133,.T.);
#195=ORIENTED_EDGE('',*,*,#130,.T.);
#196=ORIENTED_EDGE('',*,*,#127,.T.);
#197=ORIENTED_EDGE('',*,*,#124,.T.);
#198=ORIENTED_EDGE('',*,*,#121,.T.);
#199=ORIENTED_EDGE('',*,*,#147,.F.);
#200=ORIENTED_EDGE('',*,*,#131,.F.);
#201=ORIENTED_EDGE('',*,*,#135,.F.);
#202=ORIENTED_EDGE('',*,*,#138,.F.);
#203=ORIENTED_EDGE('',*,*,#141,.F.);
#204=ORIENTED_EDGE('',*,*,#144,.F.);
#205=ORIENTED_EDGE('',*,*,#129,.F.);
#206=ORIENTED_EDGE('',*,*,#119,.F.);
#207=ORIENTED_EDGE('',*,*,#123,.F.);
#208=ORIENTED_EDGE('',*,*,#126,.F.);
#209=PLANE('',#252);
#210=PLANE('',#256);
#211=PLANE('',#260);
#212=PLANE('',#261);
#213=PLANE('',#265);
#214=PLANE('',#269);
#215=PLANE('',#270);
#216=PLANE('',#271);
#217=ADVANCED_FACE('',(#29),#209,.T.);
#218=ADVANCED_FACE('',(#30),#25,.F.);
#219=ADVANCED_FACE('',(#31),#210,.T.);
#220=ADVANCED_FACE('',(#32),#26,.F.);
#221=ADVANCED_FACE('',(#33),#211,.T.);
#222=ADVANCED_FACE('',(#34),#212,.T.);
#223=ADVANCED_FACE('',(#35),#27,.T.);
#224=ADVANCED_FACE('',(#36),#213,.T.);
#225=ADVANCED_FACE('',(#37),#28,.T.);
#226=ADVANCED_FACE('',(#38),#214,.T.);
#227=ADVANCED_FACE('',(#39,#15),#215,.T.);
#228=ADVANCED_FACE('',(#40,#16),#216,.F.);
#229=CLOSED_SHELL('',(#217,#218,#219,#220,#221,#222,#223,#224,#225,#226,
#227,#228));
#230=DERIVED_UNIT_ELEMENT(#233,1.);
#231=DERIVED_UNIT_ELEMENT(#404,-3.);
#232=DIMENSIONAL_EXPONENTS(1.,0.,0.,0.,0.,0.,0.);
#233=(
CONVERSION_BASED_UNIT('gram',#235)
MASS_UNIT()
NAMED_UNIT(#232)
);
#234=(
MASS_UNIT()
NAMED_UNIT(*)
SI_UNIT(.KILO.,.GRAM.)
);
#235=MASS_MEASURE_WITH_UNIT(MASS_MEASURE(0.001),#234);
#236=DERIVED_UNIT((#230,#231));
#237=MEASURE_REPRESENTATION_ITEM('density measure',
POSITIVE_RATIO_MEASURE(8.),#236);
#238=PROPERTY_DEFINITION_REPRESENTATION(#243,#240);
#239=PROPERTY_DEFINITION_REPRESENTATION(#244,#241);
#240=REPRESENTATION('material name',(#242),#401);
#241=REPRESENTATION('density',(#237),#401);
#242=DESCRIPTIVE_REPRESENTATION_ITEM('Edelstahl AISI 304',
'Edelstahl AISI 304');
#243=PROPERTY_DEFINITION('material property','material name',#411);
#244=PROPERTY_DEFINITION('material property','density of part',#411);
#245=DATE_TIME_ROLE('creation_date');
#246=APPLIED_DATE_AND_TIME_ASSIGNMENT(#247,#245,(#411));
#247=DATE_AND_TIME(#248,#249);
#248=CALENDAR_DATE(2021,21,4);
#249=LOCAL_TIME(0,0,0.,#250);
#250=COORDINATED_UNIVERSAL_TIME_OFFSET(0,0,.BEHIND.);
#251=AXIS2_PLACEMENT_3D('placement',#336,#272,#273);
#252=AXIS2_PLACEMENT_3D('',#337,#274,#275);
#253=AXIS2_PLACEMENT_3D('',#346,#280,#281);
#254=AXIS2_PLACEMENT_3D('',#348,#282,#283);
#255=AXIS2_PLACEMENT_3D('',#350,#284,#285);
#256=AXIS2_PLACEMENT_3D('',#352,#287,#288);
#257=AXIS2_PLACEMENT_3D('',#358,#292,#293);
#258=AXIS2_PLACEMENT_3D('',#359,#294,#295);
#259=AXIS2_PLACEMENT_3D('',#360,#296,#297);
#260=AXIS2_PLACEMENT_3D('',#361,#298,#299);
#261=AXIS2_PLACEMENT_3D('',#370,#304,#305);
#262=AXIS2_PLACEMENT_3D('',#376,#309,#310);
#263=AXIS2_PLACEMENT_3D('',#378,#311,#312);
#264=AXIS2_PLACEMENT_3D('',#380,#313,#314);
#265=AXIS2_PLACEMENT_3D('',#382,#316,#317);
#266=AXIS2_PLACEMENT_3D('',#388,#321,#322);
#267=AXIS2_PLACEMENT_3D('',#390,#323,#324);
#268=AXIS2_PLACEMENT_3D('',#392,#325,#326);
#269=AXIS2_PLACEMENT_3D('',#394,#328,#329);
#270=AXIS2_PLACEMENT_3D('',#397,#332,#333);
#271=AXIS2_PLACEMENT_3D('',#398,#334,#335);
#272=DIRECTION('axis',(0.,0.,1.));
#273=DIRECTION('refdir',(1.,0.,0.));
#274=DIRECTION('center_axis',(-4.44089209850063E-16,0.,-1.));
#275=DIRECTION('ref_axis',(-1.,0.,4.44089209850063E-16));
#276=DIRECTION('',(-1.,0.,4.44089209850063E-16));
#277=DIRECTION('',(0.,1.,0.));
#278=DIRECTION('',(-1.,0.,4.44089209850063E-16));
#279=DIRECTION('',(0.,1.,0.));
#280=DIRECTION('center_axis',(0.,1.,0.));
#281=DIRECTION('ref_axis',(0.,0.,-1.));
#282=DIRECTION('center_axis',(0.,-1.,0.));
#283=DIRECTION('ref_axis',(0.,0.,-1.));
#284=DIRECTION('center_axis',(0.,-1.,0.));
#285=DIRECTION('ref_axis',(0.,0.,-1.));
#286=DIRECTION('',(0.,1.,0.));
#287=DIRECTION('center_axis',(4.44089209850063E-16,0.,1.));
#288=DIRECTION('ref_axis',(1.,0.,-4.44089209850063E-16));
#289=DIRECTION('',(1.,0.,-4.44089209850063E-16));
#290=DIRECTION('',(1.,0.,-4.44089209850063E-16));
#291=DIRECTION('',(0.,1.,0.));
#292=DIRECTION('center_axis',(0.,1.,0.));
#293=DIRECTION('ref_axis',(0.,0.,1.));
#294=DIRECTION('center_axis',(0.,-1.,0.));
#295=DIRECTION('ref_axis',(0.,0.,1.));
#296=DIRECTION('center_axis',(0.,-1.,0.));
#297=DIRECTION('ref_axis',(0.,0.,1.));
#298=DIRECTION('center_axis',(1.,0.,0.));
#299=DIRECTION('ref_axis',(0.,0.,-1.));
#300=DIRECTION('',(0.,0.,-1.));
#301=DIRECTION('',(0.,1.,0.));
#302=DIRECTION('',(0.,0.,-1.));
#303=DIRECTION('',(0.,1.,0.));
#304=DIRECTION('center_axis',(-2.52323414687536E-17,0.,1.));
#305=DIRECTION('ref_axis',(1.,0.,2.52323414687536E-17));
#306=DIRECTION('',(1.,0.,2.52323414687536E-17));
#307=DIRECTION('',(1.,0.,2.52323414687536E-17));
#308=DIRECTION('',(0.,1.,0.));
#309=DIRECTION('center_axis',(0.,1.,0.));
#310=DIRECTION('ref_axis',(-1.,0.,5.55111512312575E-15));
#311=DIRECTION('center_axis',(0.,1.,0.));
#312=DIRECTION('ref_axis',(-1.,0.,5.55111512312575E-15));
#313=DIRECTION('center_axis',(0.,1.,0.));
#314=DIRECTION('ref_axis',(-1.,0.,5.55111512312575E-15));
#315=DIRECTION('',(0.,1.,0.));
#316=DIRECTION('center_axis',(-1.,0.,0.));
#317=DIRECTION('ref_axis',(0.,0.,1.));
#318=DIRECTION('',(0.,0.,1.));
#319=DIRECTION('',(0.,0.,1.));
#320=DIRECTION('',(0.,1.,0.));
#321=DIRECTION('center_axis',(0.,1.,0.));
#322=DIRECTION('ref_axis',(-4.4408920985006E-15,0.,-1.));
#323=DIRECTION('center_axis',(0.,1.,0.));
#324=DIRECTION('ref_axis',(-4.4408920985006E-15,0.,-1.));
#325=DIRECTION('center_axis',(0.,1.,0.));
#326=DIRECTION('ref_axis',(-4.4408920985006E-15,0.,-1.));
#327=DIRECTION('',(0.,1.,0.));
#328=DIRECTION('center_axis',(0.,0.,-1.));
#329=DIRECTION('ref_axis',(-1.,0.,0.));
#330=DIRECTION('',(-1.,0.,0.));
#331=DIRECTION('',(-1.,0.,0.));
#332=DIRECTION('center_axis',(0.,1.,0.));
#333=DIRECTION('ref_axis',(0.,0.,1.));
#334=DIRECTION('center_axis',(0.,1.,0.));
#335=DIRECTION('ref_axis',(0.,0.,1.));
#336=CARTESIAN_POINT('',(0.,0.,0.));
#337=CARTESIAN_POINT('Origin',(-25.,0.,-7.99999999999999));
#338=CARTESIAN_POINT('',(-25.,0.,-7.99999999999999));
#339=CARTESIAN_POINT('',(-35.,0.,-7.99999999999998));
#340=CARTESIAN_POINT('',(-25.,0.,-7.99999999999999));
#341=CARTESIAN_POINT('',(-35.,6.,-7.99999999999998));
#342=CARTESIAN_POINT('',(-35.,0.,-7.99999999999998));
#343=CARTESIAN_POINT('',(-25.,6.,-7.99999999999999));
#344=CARTESIAN_POINT('',(-25.,6.,-7.99999999999999));
#345=CARTESIAN_POINT('',(-25.,0.,-7.99999999999999));
#346=CARTESIAN_POINT('Origin',(-25.,0.,-12.5));
#347=CARTESIAN_POINT('',(-25.,0.,-17.));
#348=CARTESIAN_POINT('Origin',(-25.,0.,-12.5));
#349=CARTESIAN_POINT('',(-25.,6.,-17.));
#350=CARTESIAN_POINT('Origin',(-25.,6.,-12.5));
#351=CARTESIAN_POINT('',(-25.,0.,-17.));
#352=CARTESIAN_POINT('Origin',(-35.,0.,-17.));
#353=CARTESIAN_POINT('',(-35.,0.,-17.));
#354=CARTESIAN_POINT('',(-35.,0.,-17.));
#355=CARTESIAN_POINT('',(-35.,6.,-17.));
#356=CARTESIAN_POINT('',(-35.,6.,-17.));
#357=CARTESIAN_POINT('',(-35.,0.,-17.));
#358=CARTESIAN_POINT('Origin',(-35.,0.,-12.5));
#359=CARTESIAN_POINT('Origin',(-35.,0.,-12.5));
#360=CARTESIAN_POINT('Origin',(-35.,6.,-12.5));
#361=CARTESIAN_POINT('Origin',(0.,0.,0.));
#362=CARTESIAN_POINT('',(0.,0.,0.));
#363=CARTESIAN_POINT('',(0.,0.,-25.));
#364=CARTESIAN_POINT('',(0.,0.,0.));
#365=CARTESIAN_POINT('',(0.,6.,-25.));
#366=CARTESIAN_POINT('',(0.,0.,-25.));
#367=CARTESIAN_POINT('',(0.,6.,0.));
#368=CARTESIAN_POINT('',(0.,6.,0.));
#369=CARTESIAN_POINT('',(0.,0.,0.));
#370=CARTESIAN_POINT('Origin',(-46.,0.,-2.77555756156289E-16));
#371=CARTESIAN_POINT('',(-46.,0.,-2.77555756156289E-16));
#372=CARTESIAN_POINT('',(-46.,0.,-2.77555756156289E-16));
#373=CARTESIAN_POINT('',(-46.,6.,0.));
#374=CARTESIAN_POINT('',(-46.,6.,-2.77555756156289E-16));
#375=CARTESIAN_POINT('',(-46.,0.,-2.77555756156289E-16));
#376=CARTESIAN_POINT('Origin',(-46.,0.,-2.00000000000001));
#377=CARTESIAN_POINT('',(-48.,0.,-2.));
#378=CARTESIAN_POINT('Origin',(-46.,0.,-2.00000000000001));
#379=CARTESIAN_POINT('',(-48.,6.,-2.));
#380=CARTESIAN_POINT('Origin',(-46.,6.,-2.00000000000001));
#381=CARTESIAN_POINT('',(-48.,0.,-2.));
#382=CARTESIAN_POINT('Origin',(-48.,0.,-23.));
#383=CARTESIAN_POINT('',(-48.,0.,-23.));
#384=CARTESIAN_POINT('',(-48.,0.,-23.));
#385=CARTESIAN_POINT('',(-48.,6.,-23.));
#386=CARTESIAN_POINT('',(-48.,6.,-23.));
#387=CARTESIAN_POINT('',(-48.,0.,-23.));
#388=CARTESIAN_POINT('Origin',(-46.,0.,-23.));
#389=CARTESIAN_POINT('',(-46.,0.,-25.));
#390=CARTESIAN_POINT('Origin',(-46.,0.,-23.));
#391=CARTESIAN_POINT('',(-46.,6.,-25.));
#392=CARTESIAN_POINT('Origin',(-46.,6.,-23.));
#393=CARTESIAN_POINT('',(-46.,0.,-25.));
#394=CARTESIAN_POINT('Origin',(0.,0.,-25.));
#395=CARTESIAN_POINT('',(0.,0.,-25.));
#396=CARTESIAN_POINT('',(0.,6.,-25.));
#397=CARTESIAN_POINT('Origin',(-24.,6.,-12.5));
#398=CARTESIAN_POINT('Origin',(-24.,0.,-12.5));
#399=UNCERTAINTY_MEASURE_WITH_UNIT(LENGTH_MEASURE(0.01),#403,
'DISTANCE_ACCURACY_VALUE',
'Maximum model space distance between geometric entities at asserted c
onnectivities');
#400=UNCERTAINTY_MEASURE_WITH_UNIT(LENGTH_MEASURE(0.01),#403,
'DISTANCE_ACCURACY_VALUE',
'Maximum model space distance between geometric entities at asserted c
onnectivities');
#401=(
GEOMETRIC_REPRESENTATION_CONTEXT(3)
GLOBAL_UNCERTAINTY_ASSIGNED_CONTEXT((#399))
GLOBAL_UNIT_ASSIGNED_CONTEXT((#403,#405,#406))
REPRESENTATION_CONTEXT('','3D')
);
#402=(
GEOMETRIC_REPRESENTATION_CONTEXT(3)
GLOBAL_UNCERTAINTY_ASSIGNED_CONTEXT((#400))
GLOBAL_UNIT_ASSIGNED_CONTEXT((#403,#405,#406))
REPRESENTATION_CONTEXT('','3D')
);
#403=(
LENGTH_UNIT()
NAMED_UNIT(*)
SI_UNIT(.MILLI.,.METRE.)
);
#404=(
LENGTH_UNIT()
NAMED_UNIT(*)
SI_UNIT(.CENTI.,.METRE.)
);
#405=(
NAMED_UNIT(*)
PLANE_ANGLE_UNIT()
SI_UNIT($,.RADIAN.)
);
#406=(
NAMED_UNIT(*)
SI_UNIT($,.STERADIAN.)
SOLID_ANGLE_UNIT()
);
#407=SHAPE_DEFINITION_REPRESENTATION(#408,#409);
#408=PRODUCT_DEFINITION_SHAPE('',$,#411);
#409=SHAPE_REPRESENTATION('',(#251),#401);
#410=PRODUCT_DEFINITION_CONTEXT('part definition',#415,'design');
#411=PRODUCT_DEFINITION('43299','43299',#412,#410);
#412=PRODUCT_DEFINITION_FORMATION('',$,#417);
#413=PRODUCT_RELATED_PRODUCT_CATEGORY('43299','43299',(#417));
#414=APPLICATION_PROTOCOL_DEFINITION('international standard',
'automotive_design',2009,#415);
#415=APPLICATION_CONTEXT(
'Core Data for Automotive Mechanical Design Process');
#416=PRODUCT_CONTEXT('part definition',#415,'mechanical');
#417=PRODUCT('43299','43299',$,(#416));
#418=PRESENTATION_STYLE_ASSIGNMENT((#419));
#419=SURFACE_STYLE_USAGE(.BOTH.,#422);
#420=SURFACE_STYLE_RENDERING_WITH_PROPERTIES($,#426,(#421));
#421=SURFACE_STYLE_TRANSPARENT(0.);
#422=SURFACE_SIDE_STYLE('',(#423,#420));
#423=SURFACE_STYLE_FILL_AREA(#424);
#424=FILL_AREA_STYLE('',(#425));
#425=FILL_AREA_STYLE_COLOUR('',#426);
#426=COLOUR_RGB('',0.956862745098039,0.956862745098039,0.956862745098039);
ENDSEC;
END-ISO-10303-21;
