ISO-10303-21;
HEADER;
/* Generated by software containing ST-Developer
 * from STEP Tools, Inc. (www.steptools.com) 
 */

FILE_DESCRIPTION(
/* description */ (''),
/* implementation_level */ '2;1');

FILE_NAME(
/* name */ 
'C:\\Users\\O.Boryczka\\Desktop\\Korrigierte Zeichnungen\\Bauteile f\X\FC
r Zugstangen\\43385.ipt.step',
/* time_stamp */ '2022-07-18T12:53:29+02:00',
/* author */ ('Abt. Technik'),
/* organization */ (''),
/* preprocessor_version */ 'ST-DEVELOPER v18.1',
/* originating_system */ 'Autodesk Inventor 2022',
/* authorisation */ '');

FILE_SCHEMA (('AUTOMOTIVE_DESIGN { 1 0 10303 214 3 1 1 }'));
ENDSEC;

DATA;
#10=MECHANICAL_DESIGN_GEOMETRIC_PRESENTATION_REPRESENTATION('',(#13),#185);
#11=SHAPE_REPRESENTATION_RELATIONSHIP('SRR','None',#192,#12);
#12=ADVANCED_BREP_SHAPE_REPRESENTATION('',(#14),#184);
#13=STYLED_ITEM('',(#201),#14);
#14=MANIFOLD_SOLID_BREP('Volumenk\X\F6rper1',#92);
#15=FACE_BOUND('',#34,.T.);
#16=FACE_BOUND('',#36,.T.);
#17=PLANE('',#118);
#18=PLANE('',#122);
#19=PLANE('',#126);
#20=PLANE('',#127);
#21=FACE_OUTER_BOUND('',#28,.T.);
#22=FACE_OUTER_BOUND('',#29,.T.);
#23=FACE_OUTER_BOUND('',#30,.T.);
#24=FACE_OUTER_BOUND('',#31,.T.);
#25=FACE_OUTER_BOUND('',#32,.T.);
#26=FACE_OUTER_BOUND('',#33,.T.);
#27=FACE_OUTER_BOUND('',#35,.T.);
#28=EDGE_LOOP('',(#64,#65,#66,#67));
#29=EDGE_LOOP('',(#68));
#30=EDGE_LOOP('',(#69,#70,#71,#72));
#31=EDGE_LOOP('',(#73));
#32=EDGE_LOOP('',(#74,#75,#76,#77));
#33=EDGE_LOOP('',(#78));
#34=EDGE_LOOP('',(#79));
#35=EDGE_LOOP('',(#80));
#36=EDGE_LOOP('',(#81));
#37=LINE('',#164,#40);
#38=LINE('',#171,#41);
#39=LINE('',#178,#42);
#40=VECTOR('',#134,5.);
#41=VECTOR('',#143,5.);
#42=VECTOR('',#152,8.);
#43=CIRCLE('',#116,5.);
#44=CIRCLE('',#117,5.);
#45=CIRCLE('',#120,5.);
#46=CIRCLE('',#121,5.);
#47=CIRCLE('',#124,8.);
#48=CIRCLE('',#125,8.);
#49=VERTEX_POINT('',#161);
#50=VERTEX_POINT('',#163);
#51=VERTEX_POINT('',#168);
#52=VERTEX_POINT('',#170);
#53=VERTEX_POINT('',#175);
#54=VERTEX_POINT('',#177);
#55=EDGE_CURVE('',#49,#49,#43,.T.);
#56=EDGE_CURVE('',#49,#50,#37,.T.);
#57=EDGE_CURVE('',#50,#50,#44,.T.);
#58=EDGE_CURVE('',#51,#51,#45,.T.);
#59=EDGE_CURVE('',#51,#52,#38,.T.);
#60=EDGE_CURVE('',#52,#52,#46,.T.);
#61=EDGE_CURVE('',#53,#53,#47,.T.);
#62=EDGE_CURVE('',#53,#54,#39,.T.);
#63=EDGE_CURVE('',#54,#54,#48,.T.);
#64=ORIENTED_EDGE('',*,*,#55,.F.);
#65=ORIENTED_EDGE('',*,*,#56,.T.);
#66=ORIENTED_EDGE('',*,*,#57,.T.);
#67=ORIENTED_EDGE('',*,*,#56,.F.);
#68=ORIENTED_EDGE('',*,*,#57,.F.);
#69=ORIENTED_EDGE('',*,*,#58,.F.);
#70=ORIENTED_EDGE('',*,*,#59,.T.);
#71=ORIENTED_EDGE('',*,*,#60,.T.);
#72=ORIENTED_EDGE('',*,*,#59,.F.);
#73=ORIENTED_EDGE('',*,*,#60,.F.);
#74=ORIENTED_EDGE('',*,*,#61,.F.);
#75=ORIENTED_EDGE('',*,*,#62,.T.);
#76=ORIENTED_EDGE('',*,*,#63,.T.);
#77=ORIENTED_EDGE('',*,*,#62,.F.);
#78=ORIENTED_EDGE('',*,*,#61,.T.);
#79=ORIENTED_EDGE('',*,*,#58,.T.);
#80=ORIENTED_EDGE('',*,*,#63,.F.);
#81=ORIENTED_EDGE('',*,*,#55,.T.);
#82=CYLINDRICAL_SURFACE('',#115,5.);
#83=CYLINDRICAL_SURFACE('',#119,5.);
#84=CYLINDRICAL_SURFACE('',#123,8.);
#85=ADVANCED_FACE('',(#21),#82,.F.);
#86=ADVANCED_FACE('',(#22),#17,.T.);
#87=ADVANCED_FACE('',(#23),#83,.F.);
#88=ADVANCED_FACE('',(#24),#18,.T.);
#89=ADVANCED_FACE('',(#25),#84,.T.);
#90=ADVANCED_FACE('',(#26,#15),#19,.T.);
#91=ADVANCED_FACE('',(#27,#16),#20,.F.);
#92=CLOSED_SHELL('',(#85,#86,#87,#88,#89,#90,#91));
#93=DERIVED_UNIT_ELEMENT(#96,1.);
#94=DERIVED_UNIT_ELEMENT(#187,-3.);
#95=DIMENSIONAL_EXPONENTS(1.,0.,0.,0.,0.,0.,0.);
#96=(
CONVERSION_BASED_UNIT('gram',#98)
MASS_UNIT()
NAMED_UNIT(#95)
);
#97=(
MASS_UNIT()
NAMED_UNIT(*)
SI_UNIT(.KILO.,.GRAM.)
);
#98=MASS_MEASURE_WITH_UNIT(MASS_MEASURE(0.001),#97);
#99=DERIVED_UNIT((#93,#94));
#100=MEASURE_REPRESENTATION_ITEM('density measure',
POSITIVE_RATIO_MEASURE(1.),#99);
#101=PROPERTY_DEFINITION_REPRESENTATION(#106,#103);
#102=PROPERTY_DEFINITION_REPRESENTATION(#107,#104);
#103=REPRESENTATION('material name',(#105),#184);
#104=REPRESENTATION('density',(#100),#184);
#105=DESCRIPTIVE_REPRESENTATION_ITEM('Generisch','Generisch');
#106=PROPERTY_DEFINITION('material property','material name',#194);
#107=PROPERTY_DEFINITION('material property','density of part',#194);
#108=DATE_TIME_ROLE('creation_date');
#109=APPLIED_DATE_AND_TIME_ASSIGNMENT(#110,#108,(#194));
#110=DATE_AND_TIME(#111,#112);
#111=CALENDAR_DATE(2021,30,11);
#112=LOCAL_TIME(0,0,0.,#113);
#113=COORDINATED_UNIVERSAL_TIME_OFFSET(0,0,.BEHIND.);
#114=AXIS2_PLACEMENT_3D('placement',#159,#128,#129);
#115=AXIS2_PLACEMENT_3D('',#160,#130,#131);
#116=AXIS2_PLACEMENT_3D('',#162,#132,#133);
#117=AXIS2_PLACEMENT_3D('',#165,#135,#136);
#118=AXIS2_PLACEMENT_3D('',#166,#137,#138);
#119=AXIS2_PLACEMENT_3D('',#167,#139,#140);
#120=AXIS2_PLACEMENT_3D('',#169,#141,#142);
#121=AXIS2_PLACEMENT_3D('',#172,#144,#145);
#122=AXIS2_PLACEMENT_3D('',#173,#146,#147);
#123=AXIS2_PLACEMENT_3D('',#174,#148,#149);
#124=AXIS2_PLACEMENT_3D('',#176,#150,#151);
#125=AXIS2_PLACEMENT_3D('',#179,#153,#154);
#126=AXIS2_PLACEMENT_3D('',#180,#155,#156);
#127=AXIS2_PLACEMENT_3D('',#181,#157,#158);
#128=DIRECTION('axis',(0.,0.,1.));
#129=DIRECTION('refdir',(1.,0.,0.));
#130=DIRECTION('center_axis',(0.,1.,0.));
#131=DIRECTION('ref_axis',(1.,0.,0.));
#132=DIRECTION('center_axis',(0.,1.,0.));
#133=DIRECTION('ref_axis',(1.,0.,0.));
#134=DIRECTION('',(0.,1.,0.));
#135=DIRECTION('center_axis',(0.,1.,0.));
#136=DIRECTION('ref_axis',(1.,0.,0.));
#137=DIRECTION('center_axis',(0.,-1.,0.));
#138=DIRECTION('ref_axis',(0.,0.,-1.));
#139=DIRECTION('center_axis',(0.,-1.,0.));
#140=DIRECTION('ref_axis',(1.,0.,0.));
#141=DIRECTION('center_axis',(0.,-1.,0.));
#142=DIRECTION('ref_axis',(1.,0.,0.));
#143=DIRECTION('',(0.,-1.,0.));
#144=DIRECTION('center_axis',(0.,-1.,0.));
#145=DIRECTION('ref_axis',(1.,0.,0.));
#146=DIRECTION('center_axis',(0.,1.,0.));
#147=DIRECTION('ref_axis',(0.,0.,1.));
#148=DIRECTION('center_axis',(0.,1.,0.));
#149=DIRECTION('ref_axis',(-1.,0.,0.));
#150=DIRECTION('center_axis',(0.,1.,0.));
#151=DIRECTION('ref_axis',(-1.,0.,0.));
#152=DIRECTION('',(0.,-1.,0.));
#153=DIRECTION('center_axis',(0.,1.,0.));
#154=DIRECTION('ref_axis',(-1.,0.,0.));
#155=DIRECTION('center_axis',(0.,1.,0.));
#156=DIRECTION('ref_axis',(0.,0.,1.));
#157=DIRECTION('center_axis',(0.,1.,0.));
#158=DIRECTION('ref_axis',(0.,0.,1.));
#159=CARTESIAN_POINT('',(0.,0.,0.));
#160=CARTESIAN_POINT('Origin',(0.,0.,0.));
#161=CARTESIAN_POINT('',(-5.,0.,6.12323399573677E-16));
#162=CARTESIAN_POINT('Origin',(0.,0.,0.));
#163=CARTESIAN_POINT('',(-5.,55.,6.12323399573677E-16));
#164=CARTESIAN_POINT('',(-5.,0.,6.12323399573677E-16));
#165=CARTESIAN_POINT('Origin',(0.,55.,0.));
#166=CARTESIAN_POINT('Origin',(0.,55.,0.));
#167=CARTESIAN_POINT('Origin',(0.,250.,0.));
#168=CARTESIAN_POINT('',(-5.,250.,-6.12323399573677E-16));
#169=CARTESIAN_POINT('Origin',(0.,250.,0.));
#170=CARTESIAN_POINT('',(-5.,195.,-6.12323399573677E-16));
#171=CARTESIAN_POINT('',(-5.,250.,-6.12323399573677E-16));
#172=CARTESIAN_POINT('Origin',(0.,195.,0.));
#173=CARTESIAN_POINT('Origin',(0.,195.,0.));
#174=CARTESIAN_POINT('Origin',(0.,0.,0.));
#175=CARTESIAN_POINT('',(8.,250.,-9.79717439317883E-16));
#176=CARTESIAN_POINT('Origin',(0.,250.,0.));
#177=CARTESIAN_POINT('',(8.,0.,-9.79717439317883E-16));
#178=CARTESIAN_POINT('',(8.,0.,-9.79717439317883E-16));
#179=CARTESIAN_POINT('Origin',(0.,0.,0.));
#180=CARTESIAN_POINT('Origin',(0.,250.,0.));
#181=CARTESIAN_POINT('Origin',(0.,0.,0.));
#182=UNCERTAINTY_MEASURE_WITH_UNIT(LENGTH_MEASURE(0.01),#186,
'DISTANCE_ACCURACY_VALUE',
'Maximum model space distance between geometric entities at asserted c
onnectivities');
#183=UNCERTAINTY_MEASURE_WITH_UNIT(LENGTH_MEASURE(0.01),#186,
'DISTANCE_ACCURACY_VALUE',
'Maximum model space distance between geometric entities at asserted c
onnectivities');
#184=(
GEOMETRIC_REPRESENTATION_CONTEXT(3)
GLOBAL_UNCERTAINTY_ASSIGNED_CONTEXT((#182))
GLOBAL_UNIT_ASSIGNED_CONTEXT((#186,#188,#189))
REPRESENTATION_CONTEXT('','3D')
);
#185=(
GEOMETRIC_REPRESENTATION_CONTEXT(3)
GLOBAL_UNCERTAINTY_ASSIGNED_CONTEXT((#183))
GLOBAL_UNIT_ASSIGNED_CONTEXT((#186,#188,#189))
REPRESENTATION_CONTEXT('','3D')
);
#186=(
LENGTH_UNIT()
NAMED_UNIT(*)
SI_UNIT(.MILLI.,.METRE.)
);
#187=(
LENGTH_UNIT()
NAMED_UNIT(*)
SI_UNIT(.CENTI.,.METRE.)
);
#188=(
NAMED_UNIT(*)
PLANE_ANGLE_UNIT()
SI_UNIT($,.RADIAN.)
);
#189=(
NAMED_UNIT(*)
SI_UNIT($,.STERADIAN.)
SOLID_ANGLE_UNIT()
);
#190=SHAPE_DEFINITION_REPRESENTATION(#191,#192);
#191=PRODUCT_DEFINITION_SHAPE('',$,#194);
#192=SHAPE_REPRESENTATION('',(#114),#184);
#193=PRODUCT_DEFINITION_CONTEXT('part definition',#198,'design');
#194=PRODUCT_DEFINITION('43385','43385',#195,#193);
#195=PRODUCT_DEFINITION_FORMATION('',$,#200);
#196=PRODUCT_RELATED_PRODUCT_CATEGORY('43385','43385',(#200));
#197=APPLICATION_PROTOCOL_DEFINITION('international standard',
'automotive_design',2009,#198);
#198=APPLICATION_CONTEXT(
'Core Data for Automotive Mechanical Design Process');
#199=PRODUCT_CONTEXT('part definition',#198,'mechanical');
#200=PRODUCT('43385','43385',$,(#199));
#201=PRESENTATION_STYLE_ASSIGNMENT((#202));
#202=SURFACE_STYLE_USAGE(.BOTH.,#205);
#203=SURFACE_STYLE_RENDERING_WITH_PROPERTIES($,#209,(#204));
#204=SURFACE_STYLE_TRANSPARENT(0.);
#205=SURFACE_SIDE_STYLE('',(#206,#203));
#206=SURFACE_STYLE_FILL_AREA(#207);
#207=FILL_AREA_STYLE('',(#208));
#208=FILL_AREA_STYLE_COLOUR('',#209);
#209=COLOUR_RGB('',0.749019607843137,0.749019607843137,0.749019607843137);
ENDSEC;
END-ISO-10303-21;
